Ukulele Tabs for Truce - Twenty One Pilots

Tab for Song: Truce
Artist: Twenty One Pilots

A|--------------------3--2--0--------------------------------------
E|--0-----1--------0-----------3--0-----------0--3-----------------
C|-----------2--------------------------0--2--------2--0-----0-----
G|--------------------------------------------------------------0--
  Now   the night...
A|-----------------------3--2--0--------------------------------------
E|--0--0-----1--------0-----------3--0-----------0--3-----------------
C|--------------2--------------------------0--2--------2--0-----0-----
G|-----------------------------------------------------------------0--
  The sun...
A|-----------------------------0-----------------------------------------------------------------
E|--------------------------------3--0-----------------------------------------------------------
C|--4--------2--------0-----------------2-----4--------2--------0-----------------4-----2--------
G|-----2--2-----0--0-----0-----------------------2--2-----0--0-----0-----2--0--0-----0-----0--0--
  Stay alive...
A|--------------------3--2--0--------------------------------------
E|--0-----1--------0-----------3--0-----------0--3-----------------
C|-----------2--------------------------0--2--------2--0-----0-----
G|--------------------------------------------------------------0--
    I   will fear...
A|-----------------------3--2--0--------------------------------------
E|--0--0-----1--------0-----------3--0-----------0--3-----------------
C|--------------2--------------------------0--2--------2--0-----0-----
G|-----------------------------------------------------------------0--
   I hope...
A|-----------------------------0--------------------------------------------------------------
E|--------------------------------3--0--------------------------------------------------------
C|--4--------2--------0-----------------2-----4--------2--------0-----------------4-----2-----
G|-----2--2-----0--0-----0-----------------------2--2-----0--0-----0-----2--0--0-----0-----0--
  Stay alive...
A|--------------------------------3--5-----7--10----5--3-----0-----3--
E|--------0--3--------------------------------------------------------
C|--0--2--------2--0-----0--------------------------------------------
G|--------------------------0-----------------------------------------


tabs and chords, guitar tabs, music contests, music covers, songsterr, reverbnation, renditions, tabulature, bollywood chords, ultimate guitar, yousician, guitar lessons, torrins, fender, gibson, acoustic guitar, electric guitar, youtube covers, gootar, guitar tuner, A-Z tabs, 911 tabs