Bass Tabs for Twenty One Pilots - Heathens

Tacet Chorus 1st time, or optional melody as follows:
  "All my...................slow."                                "know."
G|--15-16-15----15-16-15-------------------15-16-15----15-16-15-------------------
D|-----------16----------16-13----------------------16----------16-13-------------
A|--------------------------------------------------------------------------------
E|--------------------------------------------------------------------------------
               "an-y  su - den moves"
G|--21-19-17----21-19-17----21-21-16----------21-19-17----21-19-17-17-21-21-16----
D|--------------------------------------------------------------------------------
A|--------------------------------------------------------------------------------
E|--------------------------------------------------------------------------------
Chorus:(2nd time)    "...slow.............................know"
G|-----------------------------------------------------------------
D|-----------------------------------------------------------------
A|--3--------0-----2-----------------3--------0-----2--------------
E|--------------------3--0-----------------------------3--0--------
                     "...moves............................abuse"
G|-----------------------------------------------------------------
D|-----------------2--------------------------------2--------------
A|--3--------0--------2--------------3--------0--------2-----------
E|-----------------------0--------------------------------0--------
Tacet verse 1, then repeat chorus
Tacet most of verse 2, come in after "sitting next to"
"you?"                                        "Watch it."
G|--------------------------------------------
D|--------------------------------------------
A|--2-----2-----2-----2-----2-----2-----2-----
E|--------------------------------------------
Bass Drop          
G|-----------------------------------------------2--------------------
D|-----------------------2-----------------------------2-----------0--
A|--3--------0-----2-----------------3--------0-----------3-----------
E|--------------------3--------------------------------------0--------
Tacet 1st half of Chorus or play the optional melody; come in on bass line for 2nd half
G|-----------------------------------------------------------------
D|-----------------2--------------------------------2--------------
A|--3--------0--------2--------------3--------0--------2-----------
E|-----------------------0--------------------------------0--------
Repeat Chorus
"Why'd you come...........stayed"
G|-----------------------------------------------------------------
D|-----------------------------------------------------------------
A|--3--------------------------------3--------0-----2--------------
E|-----------------------0-----------------------------3--0--------
                                                   "us."
G|-----------------------------------------------------------------
D|-----------------2--------------------------------2--------------
A|--3--------0--------2--------------3--------0--------------------
E|-----------------------0-----------------------------------------
tabs and chords, guitar tabs, music contests, music covers, songsterr, reverbnation, renditions, tabulature, bollywood chords, ultimate guitar, yousician, guitar lessons, torrins, fender, gibson, acoustic guitar, electric guitar, youtube covers, gootar, guitar tuner, A-Z tabs, 911 tabs