Guitar Tabs for Tune Up 1 Rent - M10

(/) Slide Up  (\) Slide Down  (h) Hammer On  (p) Pull Off  (b) Bend (r) Release (v) Vibrato (x) Muted

Tabs for Song : 

SCRPIT // OF IT // FIRST SHOT // YEAR 
E|--------------------------------------------------------------------------------------------------------------------------
B|--------------------------------------------------------------------------------------------------------------------------
G|--------------------------------------------------------------------------------------------------------------------------
D|--------------------------------------------------------------------------------------------------------0-----0-----0-----
A|--------------------------------------0--0--0--0--0--0--0--0--0--0--0--0--0--0--0--0-----------------0-----0-----0-----0--
E|--0--0--0--0--0--0--0--0--0--0--0--0--------------------------------------------------0--0--0--0--0-----------------------

E|--0--------0--------0--------0--------------------------------0--------x--------------0--------------------0--------------------------0--x--
B|--0--------0--------0--------0--------------3-----------3-----3--------x-----------------0--------------------0--------------------0-----x--
G|--0--------0--------0--------0-----------2-----2-----------2--2--------x-----------2--------2-----------2--------2--------------2--------x--
D|--0--------0--------0--------0--------0--------------4--------4--------x--------2--------------2-----2--------------2--------2-----------x--
A|--0--------0--------0--------0--------------------4-----------4--------x-----0-----------------------------------------0--0--------------x--
E|--0--------0--------0--------0--------------------------------0--------x--------------------------3--------------------------------------x--

E|--
B|--
G|--
D|--
A|--
E|--

Song lyrics here
E|--
B|--
G|--
D|--
A|--
E|--

Paste any tab in acousterr's tab maker and we'll play it !!!
Now supports capo and sound effects for vibrato/pull-off/hammer/bends/mutes etc !!! Checkout help section
tabs and chords, guitar tabs, music transcription, music technology, deep learning, music information retrieval, transcribe into tabs & chords, chordify, music renditions, songsterr, reverbnation, tabulature, bollywood chords, ultimate guitar, yousician, guitar lessons, acoustic guitar, electric guitar, guitar tuner, 911 tabs