Guitar Tabs for Rent Tune Up 2

(/) Slide Up  (\) Slide Down  (h) Hammer On  (p) Pull Off  (b) Bend (r) Release (v) Vibrato (x) Muted

Tabs for Song : 

                                                                                                  ( x 3 )
E|--0-----0-----------------------------------x--------------0-----------------------------x-----------------------x--------
B|--0-----0-----------3-----------3-----3-----x-----------------0-----------------0--------x--------3-----------3--x--------
G|--0-----0--------2-----2--------2-----2-----x-----------2--------2-----------2-----2-----x-----2--------------2--x--------
D|--0-----0-----0--------------4--------0-----x--------2--------------2-----2-----------2--x--0--------0-----4-----x--------
A|--0-----0-----------------4--------4--------x-----0--------------------------------------x--------------2--------x--------
E|--0-----0-----------------------------------x--------------------------3-----------------x-----------------------x--------
                                                      BOUGHT // REMEMBER //  YOU //
E|-----------0-----------------------0--------------x--------------------------------------------------------------------------
B|--------------0-----------------0-----------------x--------------------------------------------------------------------------
G|--------2--------2-----------2--------------------x--------------------------------------------------------------------------
D|-----2--------------2-----2-----------------------x--------------------------------------------------------0-----0-----0-----
A|--0-----------------------------------------------x--0--0--0--0--0--0--0--0--0--0--0--0--0--0--0--0-----0-----0-----0-----0--
E|-----------------------3--------------------------x--------------------------------------------------0-----------------------
     ( x 7 )
E|-----0--------x--------------------0--0--------x-----8-----------8--7-----------7--5--5--7--8--8---------------------
B|-----0--------x-----------------0-----0--------x-----------5--8-----------5--8--------------------6--6--6--8--10v12-
G|-----0--------x--------------0--------0--------x--------5--------------5--------------------------------------------
D|-----0--------x-----------0-----------0--------x--------------------------------------------------------------------
A|-----0--------x--------0--------------0--------x--------------------------------------------------------------------
E|-----0--------x-----0-----------------0--------x--------------------------------------------------------------------

Song lyrics her
E|--
B|--
G|--
D|--
A|--
E|--

Paste any tab in acousterr's tab maker and we'll play it !!!
Now supports capo and sound effects for vibrato/pull-off/hammer/bends/mutes etc !!! Checkout help section
tabs and chords, guitar tabs, music transcription, music technology, deep learning, music information retrieval, transcribe into tabs & chords, chordify, music renditions, songsterr, reverbnation, tabulature, bollywood chords, ultimate guitar, yousician, guitar lessons, acoustic guitar, electric guitar, guitar tuner, 911 tabs