Guitar Tabs for Tune

(/) Slide Up  (\) Slide Down  (h) Hammer On  (p) Pull Off  (b) Bend (r) Release (v) Vibrato (x) Muted

Tabs for Song : 

Song lyrics here
E|--------------------------------------------------------
B|--------------------------------------------------------
G|--------------------------------------------------------
D|--7--6--4-----7--6--4-----7--6--4--------6--7--6--4-----
A|-----------4-----------2-----------4--7--------------7--
E|--------------------------------------------------------

E|-----------------------------------------------------
B|-----------------------------------------------------
G|-----------------------------------------------------
D|--4--7--6--4-----7--6--4-----7--6--4--------6--7--9--
A|--------------4-----------2-----------4--7-----------
E|-----------------------------------------------------

Song lyrics here
E|--
B|--
G|--
D|--
A|--
E|--

Paste any tab in acousterr's tab maker and we'll play it !!!
Now supports capo and sound effects for vibrato/pull-off/hammer/bends/mutes etc !!! Checkout help section

Guitar Tabs for Tune





E|--0--
B|--1--
G|--2--
D|--2--
A|--0--
E|-----

E|--
B|--
G|--
D|--
A|--
E|--


E|--
B|--
G|--
D|--
A|--
E|--

tabs and chords, guitar tabs, music transcription, music technology, deep learning, music information retrieval, transcribe into tabs & chords, chordify, music renditions, songsterr, reverbnation, tabulature, bollywood chords, ultimate guitar, yousician, guitar lessons, acoustic guitar, electric guitar, guitar tuner, 911 tabs