Guitar Tabs for Shab Tum Ho

itni mohabat karta hun k labz bhi na keh paye
E|--------------------------------------------------------------------------------------------------------
B|--3--3--3--4---3h-4p3-----------3--------3--4---3h-4p3--------------3-----3--4---3h-4p3-----------------
G|-----------------------5--3-----------------------------5--3-----------------------------5--3---5/7-----
D|--------------------------------------------------------------------------------------------------------
A|--------------------------------------------------------------------------------------------------------
E|--------------------------------------------------------------------------------------------------------

Tum mile mujhe yun lage jaise koi dua mil jaye
E|-----------------------------------------------------------------------------------------------------------
B|-----3--3--3--4---3h-4p3-----------3--------3--4---3h-4p3--------------3-----3--4---3h-4p3-----------------
G|--------------------------5--3-----------------------------5--3-----------------------------5--3---5/7-----
D|-----------------------------------------------------------------------------------------------------------
A|-----------------------------------------------------------------------------------------------------------
E|-----------------------------------------------------------------------------------------------------------

Itni mohabbat karta hun k labz bhi na keh paye
E|-----------------------------------------------------------------------------------------------------------
B|-----3--3--6--4---3h-4p3-----------3--------3--4---3h-4p3--------------3-----3--4---3h-4p3-----------------
G|--------------------------5--3-----------------------------5--3-----------------------------5--3---3/5-----
D|-----------------------------------------------------------------------------------------------------------
A|-----------------------------------------------------------------------------------------------------------
E|-----------------------------------------------------------------------------------------------------------

Tum mile mujhe yun lage jaise koi dua mil jaye
E|-----------------------------------------------------------------------------------------------------------
B|-----3-----3--4---3h-4p3-----------3--------3--4---3h-4p3--------------3-----3--4---3h-4p3-----------------
G|--------------------------5--3-----------------------------5--3-----------------------------5--3---3/5-----
D|-----------------------------------------------------------------------------------------------------------
A|-----------------------------------------------------------------------------------------------------------
E|-----------------------------------------------------------------------------------------------------------



mujhe jina tera banale
E|-----------------------------3-----------------------
B|--------------3---3h-4p3--------6-----4--------3-----
G|--------3--5-----------------------------5-----------
D|-----5-----------------------------------------------
A|-----------------------------------------------------
E|-----------------------------------------------------

kiya khudko
E|--------------------------3--------------------------
B|-----------3------3h-4p3-----6-----4--------3--------
G|-----3--5-----------------------------5--------------
D|--5--------------------------------------------------
A|-----------------------------------------------------
E|-----------------------------------------------------

Sochun tujhe sham se
E|--------------------------3-----------------------------------
B|-----------3------3h-4p3-----6-----4--------3-----------------
G|-----3--5-----------------------------5-----------5-----3--2--
D|--5-----------------------------------------------------------
A|--------------------------------------------------------------
E|--------------------------------------------------------------

k shab tum ho...
E|-----------------------------------------------------------------------------------
B|--------------------------------------------------3--------4--3------3/6-----------
G|--------3--2--------------------3--2-----5--3--------5-----------------------7-----
D|-----------------5--3-----5--------------------------------------------------------
A|-----------------------------------------------------------------------------------
E|-----------------------------------------------------------------------------------

Tum he din ho....
E|-----------------------------------------------------------------------------------------
B|--------------------------------------------3--------------------------------------------
G|-----3--3-----2-----------3--2-----5--3--------5--------3--2--3------2h-3p2-----------2--
D|-----------------3--5-----------------------------------------------------------5--------
A|-----------------------------------------------------------------------------------------
E|-----------------------------------------------------------------------------------------

k shab tum ho...
E|-----------------------------------------------------------------------------------------------
B|--------------------------------------------------------3---------------3/6--------------------
G|-----3--2-----3--2-----------------3--2-----5--3--------------5-----------------7---7/8--7-----
D|--------------------3-----5--------------------------------------------------------------------
A|-----------------------------------------------------------------------------------------------
E|-----------------------------------------------------------------------------------------------


Tum he din ho....
E|-----------------------------------------------------------------------------
B|--------------------------------------------3--------------------------------
G|--3--3-----2--------------3--2-----5--3--------5-----3--2--3---------3/6-----
D|--------------3-----5--------------------------------------------------------
A|-----------------------------------------------------------------------------
E|-----------------------------------------------------------------------------


Ek dil he toh tha mera
E|-----------------------------------------------------------------
B|--------3--3--3---3h-4p3-----------------------------3-----4--3--
G|--3--5--------------------5--5-----5--3--5-----5-----------------
D|-----------------------------------------------------------------
A|-----------------------------------------------------------------
E|-----------------------------------------------------------------

Mujhe dena tu bawaf
E|--------------------------------------------------------------------
B|-----------3-----3-----6-----4--------------------------3-----4--3--
G|-----3--5-----------------------5-----5--3--5-----5-----------------
D|--------------------------------------------------------------------
A|--------------------------------------------------------------------
E|--------------------------------------------------------------------


Shabnami si ho tum
E|-----------3--3---3h-5p3-----------------------------------------
B|-----3--3-----------------6-----4--3--------------3---3h-4p3--3--
G|--5-----------------------------------5--3--5--5-----------------
D|-----------------------------------------------------------------
A|-----------------------------------------------------------------
E|-----------------------------------------------------------------

tabs and chords, guitar tabs, music transcription, music technology, deep learning, music information retrieval, transcribe into tabs & chords, chordify, music renditions, songsterr, reverbnation, tabulature, bollywood chords, ultimate guitar, yousician, guitar lessons, acoustic guitar, electric guitar, guitar tuner, 911 tabs