Guitar Tabs for Shab Tum Ho - Darshan Raval Tabs

(/) Slide Up  (\) Slide Down  (h) Hammer On  (p) Pull Off  (b) Bend (r) Release (v) Vibrato (x) Muted

Tabs for Song : Shab Tum Ho

Itni mohabbat karta hoon Ke lafz bhi na keh paaye
E|--------------------------------------------------------------------------
B|--------------------------------------------------------------------------
G|--7--7--7--8---7h8--------7--7--8---7h8--------7--7--8---7h8--------------
D|--------------------10-8-----------------10-8-----------------10-8---8/10-
A|--------------------------------------------------------------------------
E|--------------------------------------------------------------------------

Tum mile mujhe yun lage Jaise koi duaa mill jaaye
E|--------------------------------------------------------------
B|--------------------------------------------------------------
G|--7--8--7--------7--7--8--7--------7--7--8---7h8--------------
D|-----------10-8--------------10-8-----------------10-8---8/10-
A|--------------------------------------------------------------
E|--------------------------------------------------------------

Itni mohabbat karta hoon Ke lafz bhi na keh paaye
E|--------------------------------------------------------------------------
B|--------------------------------------------------------------------------
G|--7--7--7--10--7h8--------7--7--8---7h8--------7--7--8---7h8--------------
D|--------------------10-8-----------------10-8-----------------10-8---8/10-
A|--------------------------------------------------------------------------
E|--------------------------------------------------------------------------

Tum mile mujhe yun lage Jaise koi duaa mill jaaye
E|--------------------------------------------------------------
B|--------------------------------------------------------------
G|--7--8--7--------7--7--8--7--------7--7--8---7h8--------------
D|-----------10-8--------------10-8-----------------10-8---8/10-
A|--------------------------------------------------------------
E|--------------------------------------------------------------

Mujhe jeena tera bana le 
E|--------------10-15-13-11-10-8--10-
B|-----10-11-13----------------------
G|--12-------------------------------
D|-----------------------------------
A|-----------------------------------
E|-----------------------------------

Kiya khud ko tere hawaale
E|--------------10-15-13-11-10-8--10-
B|-----10-11-13----------------------
G|--12-------------------------------
D|-----------------------------------
A|-----------------------------------
E|-----------------------------------

Sochun tujhe shaam se subah tak Har lamha
E|--------------10-15-13-11-10-8--10-------------
B|-----10-11-13----------------------11/13-11-10-
G|--12-------------------------------------------
D|-----------------------------------------------
A|-----------------------------------------------
E|-----------------------------------------------

Ki shab tum ho…
E|--------------------------------10----13-10-10/13\10-
B|--11-10p11----------11-10-13-11----13----------------
G|-----------12-10-12----------------------------------
D|-----------------------------------------------------
A|-----------------------------------------------------
E|-----------------------------------------------------

Tumhi din ho
E|--------------------------------10----------------------------
B|--11-10p11----------11-10-13-11----13-11-10-10/11-11-10----10-
G|-----------12-10-12-------------------------------------12----
D|--------------------------------------------------------------
A|--------------------------------------------------------------
E|--------------------------------------------------------------

Ki shab tum ho…
E|--------------------------------10----13-10-10/13\10-
B|--11-10p11----------11-10-13-11----13----------------
G|-----------12-10-12----------------------------------
D|-----------------------------------------------------
A|-----------------------------------------------------
E|-----------------------------------------------------

Tumhi din ho
E|--------------------------------10----------------10/13-
B|--11-10p11----------11-10-13-11----13-11-10-10/11-------
G|-----------12-10-12-------------------------------------
D|--------------------------------------------------------
A|--------------------------------------------------------
E|--------------------------------------------------------
tabs and chords, guitar tabs, music transcription, music technology, deep learning, music information retrieval, transcribe into tabs & chords, chordify, music renditions, songsterr, reverbnation, tabulature, bollywood chords, ultimate guitar, yousician, guitar lessons, acoustic guitar, electric guitar, guitar tuner, 911 tabs