Guitar Tabs for Tujhe Dekha To Ye Jaana Sanam tabs

(/) Slide Up  (\) Slide Down  (h) Hammer On  (p) Pull Off  (b) Bend (r) Release (v) Vibrato

Tabs for Song : Tujhe dekha To Ye Jaana Sanam

tujhe dekha to ye jana sanam
E|-----------0-----0--------1--0-----
B|--------------3-----1--3-----------
G|--2--2--2--------------------------
D|-----------------------------------
A|-----------------------------------
E|-----------------------------------

pyaar hota hai deewana sanam
E|-----------0-----0-----------------
B|--------------3-----1--3--1--0-----
G|--2--2--2--------------------------
D|-----------------------------------
A|-----------------------------------
E|-----------------------------------

ab yahan se kaha jaye hum
E|--------------------------------
B|--------------0--------1--0-----
G|--2--4--0--2-----0--2-----------
D|--------------------------------
A|--------------------------------
E|--------------------------------

teri bahon mein mar jaye hum
E|--------------------------------
B|--0-----------0-----1--0--------
G|-----2--0--2-----0--------2-----
D|--------------------------------
A|--------------------------------
E|--------------------------------

aankhein meri sapne tere
E|--0--1--5--0-----0--1--5--0-----
B|--------------------------------
G|--------------------------------
D|--------------------------------
A|--------------------------------
E|--------------------------------

dil mera yadein teri
E|-----0--1--------1--0-----
B|--3--------0--0-----------
G|--------------------------
D|--------------------------
A|--------------------------
E|--------------------------

mera hai kya la la la
E|--0--1--5--0-----0--1--0-----
B|-----------------------------
G|-----------------------------
D|-----------------------------
A|-----------------------------
E|-----------------------------

sab kuch tera la la la
E|--0--1--5--0-----0--1--0-----
B|-----------------------------
G|-----------------------------
D|-----------------------------
A|-----------------------------
E|-----------------------------

jaan teri saansein teri
E|-----0--1--------1--0-----
B|--3--------0--0-----------
G|--------------------------
D|--------------------------
A|--------------------------
E|--------------------------

meri aankho mein aansu tere aa gaye
E|--0-----0-----------0-----0--------------
B|-----3-----1--0--------3-----0--1--3-----
G|-----------------2-----------------------
D|-----------------------------------------
A|-----------------------------------------
E|-----------------------------------------

muskurane lage saare gam
E|-----------3--3--1--3--1--0-----------------
B|--3--3--3--------------------3--1--0--------
G|--------------------------------------2-----
D|--------------------------------------------
A|--------------------------------------------
E|--------------------------------------------

Add more lines by placing cursor below and adding notes
tabs and chords, guitar tabs, music transcription, music technology, deep learning, music information retrieval, transcribe into tabs & chords, chordify, music renditions, songsterr, reverbnation, tabulature, bollywood chords, ultimate guitar, yousician, guitar lessons, acoustic guitar, electric guitar, guitar tuner, 911 tabs