Guitar Tabs for Tujhe Dekha To Ye Jaana Sanam Tabs (ddlj)

(/) Slide Up  (\) Slide Down  (h) Hammer On  (p) Pull Off  (b) Bend (r) Release (v) Vibrato (x) Muted

Tabs for Song :tuje dekha to 
BPM : 200

tuje dekha to ye jana sanam
E|--0--0--0--7--5--7-----5--8--7--
B|--------------------8-----------
G|--------------------------------
D|--------------------------------
A|--------------------------------
E|--------------------------------

pyar hota he diwana sanam
E|--0--0--0--7--5--7-----5--------
B|--------------------8-----8--7--
G|--------------------------------
D|--------------------------------
A|--------------------------------
E|--------------------------------
ab yaha se kaha jae hum
E|-----------------------------
B|--5--7-----5--7-----5--8--7--
G|--------7--------7-----------
D|-----------------------------
A|-----------------------------
E|-----------------------------

E|-----------------------------
B|--5--7-----5--7-----8--7--5--
G|--------7--------7-----------
D|-----------------------------
A|-----------------------------
E|-----------------------------

Paste any tab in acousterr's tab maker and we'll play it !!!
Now supports capo and sound effects for vibrato/pull-off/hammer/bends/mutes etc !!! Checkout help section
tabs and chords, guitar tabs, music transcription, music technology, deep learning, music information retrieval, transcribe into tabs & chords, chordify, music renditions, songsterr, reverbnation, tabulature, bollywood chords, ultimate guitar, yousician, guitar lessons, acoustic guitar, electric guitar, guitar tuner, 911 tabs