Guitar Tabs for Tujhe Dekha To Ye Jaana Sanam

(/) Slide Up  (\) Slide Down  (h) Hammer On  (p) Pull Off  (b) Bend (r) Release (v) Vibrato (x) Muted

Tabs for Song : Tujhe Dekha To Ye Jaana Sanam

Song lyrics here: Tujhe Dekha To Ye Jaana Sanaam
E|--0--0--0--0--0--7--5--7--3--5-----8--7--
B|-----------------------------------------
G|-----------------------------------------
D|-----------------------------------------
A|-----------------------------------------
E|-----------------------------------------

Song lyrics here: Pyaar Hota Hai Dewana Sanaam 
E|-----0--0--7--5--7--3--5-----3--2--
B|-----------------------------------
G|-----------------------------------
D|-----------------------------------
A|-----------------------------------
E|-----------------------------------


Song Lyrics Here: Ab Yaha Se Kaha Jayen Haam
E|-----2--2--0--2--------0--2--------0--3--2--
B|-----------------3-----------3--------------
G|--------------------------------------------
D|--------------------------------------------
A|--------------------------------------------
E|--------------------------------------------

Song Lyrics Here: Teri Bahon Me Mar Jaye HaamB

E|-----0--2--------0-----2--------3--2-----0--
B|-----------3--------------3-----------------
G|--------------------------------------------
D|--------------------------------------------
A|--------------------------------------------
E|--------------------------------------------




Paste any tab in acousterr's tab maker and we'll play it !!!
Now supports capo and sound effects for vibrato/pull-off/hammer/bends/mutes etc !!! Checkout help section
tabs and chords, guitar tabs, music transcription, music technology, deep learning, music information retrieval, transcribe into tabs & chords, chordify, music renditions, songsterr, reverbnation, tabulature, bollywood chords, ultimate guitar, yousician, guitar lessons, acoustic guitar, electric guitar, guitar tuner, 911 tabs