Guitar Tabs for Tu Itni Khoobsurat Hai - Barkhaa Tabs

(/) Slide Up  (\) Slide Down  (h) Hammer On  (p) Pull Off  (b) Bend (r) Release (v) Vibrato

Tabs for Song : Tu Itni Khoobsurat Hai

Tu itni khoobsurat hai Fida deedaar pe tere
E|--------------------------------------------------------
B|-----9--8--6--6-----6--8--6--------------6--------------
G|--5--------------8-----------8--6--6--8-----8--6--5--5--
D|--------------------------------------------------------
A|--------------------------------------------------------
E|--------------------------------------------------------

Muqammal ishq ho mera Zara sa pyaar toh de de
E|--------------------------------------------------------
B|-----9--8--6--6-----6--8--6--------------6--------------
G|--5--------------8-----------8--6--6--8-----8--6--5--5--
D|--------------------------------------------------------
A|--------------------------------------------------------
E|--------------------------------------------------------

Falak kadamon pe aa jhuke Haseen lamhaat woh de de
E|-----8--6--4--4--3--4--3--4--6--4--3-----3-----3--8-----
B|--------------------------------------6-----6--------8--
G|--5-----------------------------------------------------
D|--------------------------------------------------------
A|--------------------------------------------------------
E|--------------------------------------------------------

Tere sang bheeg jaaun main Kabhi barsaat woh de de
E|-----8--6--4--4--3--4--3--4--6--4--3-----3-----3--8-----
B|--------------------------------------6-----6--------8--
G|--5-----------------------------------------------------
D|--------------------------------------------------------
A|--------------------------------------------------------
E|--------------------------------------------------------

Tere bina jeena pade Woh pal mujhe naa de
E|--------------------------------------------------
B|--9--8--8--6-----6--8--6-----------6--------------
G|--------------8-----------8--6--6-----8--6--5--5--
D|--------------------------------------------------
A|--------------------------------------------------
E|--------------------------------------------------

Again Repeat Part 1..
tabs and chords, guitar tabs, music contests, music covers, songsterr, reverbnation, renditions, tabulature, bollywood chords, ultimate guitar, yousician, guitar lessons, torrins, fender, gibson, acoustic guitar, electric guitar, youtube covers, gootar, guitar tuner, A-Z tabs, 911 tabs