Guitar Tabs for Tu hai ki nahi

Tabs for Song : tu hai ki nahi


mujhse hi aaj mujhko mila de
E|-----------------------------------------------------
B|--2-----2--2-----1--2--2-----1--2--1-----1--1--2-----
G|--------------------------------------3--------------
D|-----------------------------------------------------
A|-----------------------------------------------------
E|-----------------------------------------------------

dekhoon aadton mein tu hai ki nhi
E|--------------------------------------------------
B|--2--1--1-----1-----1--1-----1--2-----------------
G|-----------------3-----------------3--3--1--3-----
D|--------------------------------------------------
A|--------------------------------------------------
E|--------------------------------------------------

her saans se puch ke bata de
E|-----------------------------------------------------
B|--2-----2--2-----1--2--2-----1--2--1-----1--1--2-----
G|--------------------------------------3--------------
D|-----------------------------------------------------
A|-----------------------------------------------------
E|-----------------------------------------------------

inke fasalon mein, tu hai ki nahi
E|--------------------------------------------------
B|--2--1--1-----1-----1--1-----1--2-----------------
G|-----------------3-----------------3--3--1--3-----
D|--------------------------------------------------
A|--------------------------------------------------
E|--------------------------------------------------

mein aas paas ter aur mere paas
E|--------------1--1--------------------------
B|--2-----4--4--------2--1-----1--------1-----
G|--------------------------3--------3--------
D|--------------------------------------------
A|--------------------------------------------
E|--------------------------------------------

tu hai ki nahi
E|-----------1-----------------------
B|--------------4--4--2--1-----1-----
G|--3--3--3-----------------3--------
D|-----------------------------------
A|-----------------------------------
E|-----------------------------------

tu hai ki nahi
E|-----------1-----------------------
B|--------------4--4--2--1-----1-----
G|--3--3--3-----------------3--------
D|-----------------------------------
A|-----------------------------------
E|-----------------------------------


tu hai ki nahi
E|-----------1-----------------------
B|--------------4--4--2--1-----1-----
G|--3--3--3-----------------3--------
D|-----------------------------------
A|-----------------------------------
E|-----------------------------------

tu.. hai.. ki ...nahi
E|--1--2--2--4--4--2--1--2--1-----------------------
B|-----------------------------4--4--2--1--1--------
G|--------------------------------------------3-----
D|--------------------------------------------------
A|--------------------------------------------------
E|--------------------------------------------------


tabs and chords, guitar tabs, music contests, music covers, songsterr, reverbnation, renditions, tabulature, bollywood chords, ultimate guitar, yousician, guitar lessons, torrins, fender, gibson, acoustic guitar, electric guitar, youtube covers, gootar, guitar tuner, A-Z tabs, 911 tabs