Guitar Tabs for Tu Hi Hai Ashiqui

Tabs for Song :Tu hi hai ashiqui

melody[4 times]
E|--------------------------------
B|-----1--0-----------------1-----
G|-----------2--------0--2--------
D|--2-----------------------------
A|--------------------------------
E|--------------------------------

tu hi hai ashiqui
E|-----------------------------
B|--0--1-----0--1--1--0--------
G|-----------------------2-----
D|-----------------------------
A|-----------------------------
E|-----------------------------

tu hi awaragi
E|-----------------------------
B|-----0--------0--0-----------
G|--2--------2--------2--0-----
D|-----------------------------
A|-----------------------------
E|-----------------------------

tu hi hai zindgi 
E|--------------------------
B|--------------------0-----
G|--0--2-----0--2--2--------
D|--------------------------
A|--------------------------
E|--------------------------

tu hi khuda
E|-----------------
B|--1--0-----------
G|--------2--2-----
D|-----------------
A|-----------------
E|-----------------

tu ibtagi meri 
E|-----------------------------
B|--0--1-----0--1--1--0--------
G|-----------------------2-----
D|-----------------------------
A|-----------------------------
E|-----------------------------

tu inteha meri
E|-----------------------------
B|-----0--------0--0-----------
G|--2--------2--------2--0-----
D|-----------------------------
A|-----------------------------
E|-----------------------------
tabs and chords, guitar tabs, music contests, music covers, songsterr, reverbnation, renditions, tabulature, bollywood chords, ultimate guitar, yousician, guitar lessons, torrins, fender, gibson, acoustic guitar, electric guitar, youtube covers, gootar, guitar tuner, A-Z tabs, 911 tabs