Bass Tabs for Tryc

(/) Slide Up  (\) Slide Down  (h) Hammer On  (p) Pull Off  (b) Bend (r) Release (v) Vibrato (x) Muted

Tabs for Song : TRYC (tHATS

Song lyrics here
G|--11-------9-----------------------------7-----------------------------11-------9--------------------------------7--
D|-----12-------12----9--9------------7h9-----------------------------------12-------12----9--9---------------7h9-----
A|------------------------------7h9------------------5/7--5---------------------------------------------7h9-----------
E|--------------------------------------------------------------3-----------------------------------------------------

G|-----------------------------------11-------9-----------------------------7-----9-----7-----7-----------11-------9-----------------------
D|--------------------------------------12-------12----9--9------------7h9-----------------9-----------------12-------12----9--9-----------
A|------5/7-----5--------5---------------------------------------7h9------------------------------------------------------------------7h9--
E|--------------------3--------------------------------------------------------------------------------------------------------------------

G|--------7--------------
D|---7h9-----------------
A|-----------7--5-----5--
E|-----------------3-----

Song lyrics here
G|--------------------------------------------------------------
D|--------------------------------------------------------------
A|--10----10-10-10----------10----10----10-------10----10-10-10-
E|--------------------------------------------------------------

Paste any tab in acousterr's tab maker and we'll play it !!!
Now supports capo and sound effects for vibrato/pull-off/hammer/bends/mutes etc !!! Checkout help section
tabs and chords, guitar tabs, music transcription, music technology, deep learning, music information retrieval, transcribe into tabs & chords, chordify, music renditions, songsterr, reverbnation, tabulature, bollywood chords, ultimate guitar, yousician, guitar lessons, acoustic guitar, electric guitar, guitar tuner, 911 tabs