Guitar Tabs for Troubleman Solo1

(/) Slide Up  (\) Slide Down  (h) Hammer On  (p) Pull Off  (b) Bend (r) Release (v) Vibrato (x) Muted

Troubleman by Electric Guest solo 1 : 

E|--------------------------------------------------------------------------------------
B|--------------------------------------------------------------------------------------
G|-----------------------------------------------------------------------------8--------
D|--10-------------8-----8-----8------------------------------8h10p8------8h10----10p8v-
A|-----8--10-11v------11----11----11-8--8v-------8--11-10-8-----------11----------------
E|--------------------------------------------11----------------------------------------

E|--------------------------------------------------------------------------------------
B|--------------------------------------8------------9p8--------------------------------
G|---------------8h10----------------8-----10v-8h10--------8h10v------8---8h10-8--10/12v
D|--10-----8h10--------8h10-8v--8h10-----------------------------8h10-------------------
A|-----11v------------------------------------------------------------------------------
E|--------------------------------------------------------------------------------------

E|-----------------------------------------------------------------------
B|-----------------------------------------------------------------------
G|--10v---10p8--------8--------------------------------------------------
D|---------------8h10----10v---10-8---6/8--------------------------------
A|-----------------------------------------10----11-10-11-10-11-10\8--8v-
E|-----------------------------------------------------------------------

E|-----------------------------------------------
B|-----------------------------------------------
G|-----------------------------8-----------------
D|-----------8-----8---8h10v------11-10-8v----10v
A|------8h11----11-------------------------------
E|--11-------------------------------------------

tabs and chords, guitar tabs, music transcription, music technology, deep learning, music information retrieval, transcribe into tabs & chords, chordify, music renditions, songsterr, reverbnation, tabulature, bollywood chords, ultimate guitar, yousician, guitar lessons, acoustic guitar, electric guitar, guitar tuner, 911 tabs