Guitar Tabs for Solo1

(/) Slide Up  (\) Slide Down  (h) Hammer On  (p) Pull Off  (b) Bend (r) Release (v) Vibrato (x) Muted

Tabs for Song : 

Song lyrics here
E|-----14v---------14b15b14-------------------------------------------14b15b14-------------------------------
B|--12----------------------15b17-------15-14----------------------12----------15b17----15-14----------------
G|--12----------------------------------------14-------------------12-------------------------14-------------
D|-----------------------------------------------14----12v12v------------------------------------14-12-11-9--
A|-----------------------------------------------------------------------------------------------------------
E|-----------------------------------------------------------------------------------------------------------

E|--------------------------------------------------------------------15-14-12-------------------------
B|-----------------------------------------------------------------------------15-12-------------------
G|-----11/12----11-9--7-----11-9v-9v-7-----9--7-----7--9-----11b12-------------------12----------------
D|--7--------------------------------------------9--------------------------------------12v---10\9---7\
A|-----------------------------------------------------------------------------------------------------
E|-----------------------------------------------------------------------------------------------------

E|-----------------------------------
B|-----------------------------------
G|-----11b12-----9b11b-9\7-----------
D|---------------------------7/-9\7--
A|-----------------------------------
E|-----------------------------------

Song lyrics here
E|-----
B|-----
G|-----
D|-----
A|-----
E|-----

Paste any tab in acousterr's tab maker and we'll play it !!!
Now supports capo and sound effects for vibrato/pull-off/hammer/bends/mutes etc !!! Checkout help section
tabs and chords, guitar tabs, music transcription, music technology, deep learning, music information retrieval, transcribe into tabs & chords, chordify, music renditions, songsterr, reverbnation, tabulature, bollywood chords, ultimate guitar, yousician, guitar lessons, acoustic guitar, electric guitar, guitar tuner, 911 tabs