Guitar Tabs for Troubleman Solo 2

(/) Slide Up  (\) Slide Down  (h) Hammer On  (p) Pull Off  (b) Bend (r) Release (v) Vibrato (x) Muted

Troubleman solo 2: 

E|-----------------------------------4--3-----------4--3-----------------------------
B|-----------------4-----------4--6--------6v----6--------6--4--6-----4--6--6--4--6--
G|--5--5--3-----5-----5v----5--------------------------------------5-----------------
D|-----------6-----------------------------------------------------------------------
A|-----------------------------------------------------------------------------------
E|-----------------------------------------------------------------------------------

E|-----------------------------------4--3-----------4--3-----------------
B|-----------------4-----------4--6--------6v----6--------6--4--6--4--6--
G|--5--5--3-----5-----5v----5--------------------------------------------
D|-----------6-----------------------------------------------------------
A|-----------------------------------------------------------------------
E|-----------------------------------------------------------------------
tabs and chords, guitar tabs, music transcription, music technology, deep learning, music information retrieval, transcribe into tabs & chords, chordify, music renditions, songsterr, reverbnation, tabulature, bollywood chords, ultimate guitar, yousician, guitar lessons, acoustic guitar, electric guitar, guitar tuner, 911 tabs