Guitar Tabs for Tong Hua

(/) Slide Up  (\) Slide Down  (h) Hammer On  (p) Pull Off  (b) Bend (r) Release (v) Vibrato (x) Muted

Tabs for Song : 


BPM : 200

Song lyrics here 
E|----|-----------|-----|--------|--------|--|-----|--------|--|--------------|--------------|
B|--0-|-----------|---0-|--------|--------|--|-----|--------|--|---------3----|--------------|
G|----|---0-------|-----|---2--2-|0-------|0-|-----|--------|--|------2-----2-|---0-----0----|
D|----|---0-------|-----|--------|--------|--|4--4-|2-------|2-|0--0----------|0-----4-----0-|
A|----|-----------|-----|--------|--------|--|---3-|---3--3-|--|--------------|--------------|
E|--3-|------3--3-|-----|------0-|---0--0-|--|-----|--------|--|--------------|---------3----|

Song lyrics here 
E|----------------|-----------|--------------|--------------|--------------|--------------|---------------
B|----------------|-----------|--------------|--------------|--------------|---0----------|---------------
G|-----0-----0----|---0-----0-|0--0----------|--------------|---0-----0----|------2--2--0-|---0-----0-----
D|--0-----4-----0-|0-----4----|------2--2--0-|------0-------|0-----4-----0-|0-------------|0-----4-----2--
A|----------------|---------3-|--------------|---0-----0----|--------------|--------------|---------3-----
E|-----------0----|-----------|--------------|2-----------2-|---------3----|---------0----|---------------

E|-----------0----|-----------|-----------------|-----------------------|-----------|---------------
B|--------------3-|------3----|------1--1--0--0-|0--0-------------------|---------1-|---3--1--0-----
G|--------0-------|---2-----2-|2--2-------------|---------2--0--0-----0-|0-----0----|------------2--
D|--2--2----------|0----------|-----------------|------4-----------4----|---4-------|0--------------
A|-----3----------|-----------|---------2-------|-----------------------|---------3-|---3-----------
E|----------------|-----------|-----------------|---------0-------------|-----------|---------------

E|-------------|-----------------|------2--2--0--2--3-|3--------0-|0--0----------|---------3--2--
B|--------3----|------1--1--0--0-|0--0----------------|-----------|------3--3--3-|------3-----3--
G|-----2-----2-|2--2-------------|--------------------|---2--0----|--------------|---2--------2--
D|--0----------|-----------------|--------------------|-----------|--------------|0-----------0--
A|-------------|---------2-------|--------------------|---------3-|---3----------|---------------
E|-------------|-----------------|---------0----------|-----------|--------------|---------------

E|-------------|--------|--------------------|---------0-|0--0----------------|-----------|---------0--
B|-----3--1--0-|0--1--0-|0--1--0--1--0-------|---0--3----|------3--------1--0-|------0----|---0--3-----
G|-------------|--------|---------------2--0-|0----------|---------2--2-------|---0-------|0-----------
D|--0----------|--------|--------------------|-----------|--------------------|0--------3-|------------
A|-------------|--------|--------------------|---------3-|--------------------|-----------|---------3--
E|-----------3-|--------|--------------------|-----------|--------------------|---------3-|------------

E|--0--0----|-----------------------|--------|--------------|-----------|-----------|--------|---------------------
B|--------3-|------1--0--1--0-------|---0----|--------------|-----------|---3--1--0-|0--1--0-|0--1--0--1--0--------
G|----------|2--2--------------2--0-|2-------|---0--0-----0-|-----------|-----------|--------|---------------2--0--
D|----------|-----------------------|------2-|2--------4----|---0-----0-|0----------|--------|---------------------
A|----------|-----------------------|------3-|------5-------|2-----2--0-|-----------|--------|---------------------
E|----------|---------3-----2-------|--------|------------3-|---------2-|---------3-|--------|---------------------

E|-----------0-|0--0----------------|-----------|---------0-|0--0--2-|0----------------------|---------
B|-----0--3----|------3--------1--0-|------0----|---0--3----|--------|---3--1--0--1--0-------|---0-----
G|--0----------|---------2--2-------|---0-------|0----------|--------|------------------2--0-|2--------
D|-------------|--------------------|0--------3-|-----------|--------|-----------------------|------2--
A|-----------3-|--------------------|-----------|---------3-|--------|-----------------------|------3--
E|-------------|--------------------|---------3-|-----------|--------|---------3-----2-------|---------

E|-------------------|-----------------------------|--------|--------------|---
B|-------------------|---0-----0-----0-----0-------|---0----|--------------|---
G|-----0--0-----0--0-|---0-----0-----0-----0-------|2-------|---0--0-----0-|0--
D|--2--------4-------|0-----0-----0-----0----------|------2-|2--------4----|0--
A|--------5----------|-----------------------------|------3-|------5-------|2--
E|-----------------3-|---------------------0--0--0-|--------|--------------|3--



Use manual mode to free up cursor. Paste any tab in acousterr tab maker and we'll play it !!!
tabs and chords, guitar tabs, music transcription, music technology, deep learning, music information retrieval, transcribe into tabs & chords, chordify, music renditions, songsterr, reverbnation, tabulature, bollywood chords, ultimate guitar, yousician, guitar lessons, acoustic guitar, electric guitar, guitar tuner, 911 tabs