Guitar Tabs for Kaise Hua

Hansta rehta hu tujhse mil kar kyu
E|-----------------------------------------------------------------
B|-----------------------------------------------------------------
G|--7--4--7--4--7--4--7-----7-----4--7--4--7--4--7--4--7-----7-----
D|-----------------------------------------------------------------
A|-----------------------------------------------------------------
E|-----------------------------------------------------------------

aajkal
E|-----------------------------------------
B|-----------------------------------------
G|--6-----6-----4--2---4/6--6-----4--2-----
D|-----------------------------------------
A|-----------------------------------------
E|-----------------------------------------

Badle badle hain mere tevar kyun aajkal
E|--------------------------------------------------------------------------------
B|--------------------------------------------------------------------------------
G|--7--4--7--4--7--4--7-----7-----4--7--4--7--4--7--4--7-----7---4/6-----4--2-----
D|--------------------------------------------------------------------------------
A|--------------------------------------------------------------------------------
E|--------------------------------------------------------------------------------

Aankhein meri har jagah
E|--------------------------------------------------
B|--------------------------------------------------
G|---4/6--6-----4--4-----6--7--4------6/7--4--2-----
D|--------------------------------------------------
A|--------------------------------------------------
E|--------------------------------------------------

Dhoondhe tujhe bewajah
E|--------------------------------------
B|--------------------------------------
G|--4--4-----6--7--4------6/7--4--2-----
D|--------------------------------------
A|--------------------------------------
E|--------------------------------------

Ye main hoon ya koi aur hai
E|--------------------------------------------
B|--------------------------------------------
G|--4--4-----6--7--4-----4--4-----6--7--4-----
D|--------------------------------------------
A|--------------------------------------------
E|--------------------------------------------

meri tarah
E|--------------------------------------------------------------
B|---------------5/7--5-----7--7---7/10-7---7h-8p7--5-----5-----
G|--4--4--6--7--------------------------------------------------
D|--------------------------------------------------------------
A|--------------------------------------------------------------
E|--------------------------------------------------------------

Kaise hua, kaise hua
E|--------------------------------------------
B|---8/10-10----7--5------8/10-10----7--5-----
G|--------------------------------------------
D|--------------------------------------------
A|--------------------------------------------
E|--------------------------------------------

Tu itna zaroori kaise hua
E|--------------------------------------------------------
B|--3--3--5--3-----5---5/7--7-----5--3-----3--------------
G|-----------------------------------------------4--2-----
D|--------------------------------------------------------
A|--------------------------------------------------------
E|--------------------------------------------------------

Kaise hua, kaise hua
E|-----------------------------------------------
B|---8/10-10----7--5------8/10-10/12----7--5-----
G|-----------------------------------------------
D|-----------------------------------------------
A|-----------------------------------------------
E|-----------------------------------------------

Kaise hua, kaise hua
E|--------------------------------------------------------
B|--3--3--5--3-----5---5/7--7-----5--3-----3--------------
G|-----------------------------------------------4--2-----
D|--------------------------------------------------------
A|--------------------------------------------------------
E|--------------------------------------------------------

solo
E|-----------------------------------------
B|-----------------------10----------------
G|---7/9--9-----7--9--9--------9-----9-----
D|-----------------------------------------
A|-----------------------------------------
E|-----------------------------------------


E|--------------------------------------
B|--------------7---7b8---7h-8p7--5-----
G|---7/9--9--9--------------------------
D|--------------------------------------
A|--------------------------------------
E|--------------------------------------


E|-----------------------------------------------
B|--------------------------10/12-12----10-10----
G|--------------7---9/11-------------------------
D|--------7--9-----------------------------------
A|---7/9-----------------------------------------
E|-----------------------------------------------


E|--------------7--10-7--10----10-------10-10----12-12b14----14-14\12----10-------
B|--------7--10-------------------12----------------------------------------------
G|---7/9--------------------------------------------------------------------------
D|--------------------------------------------------------------------------------
A|--------------------------------------------------------------------------------
E|--------------------------------------------------------------------------------

Main baarish ki boli samajhta nahi tha
E|--------------------------------------------------------------
B|--------------------------------------------------------------
G|--7--7--6--7-----6--7--6--7-----6--7--6--7-----6--7--6---7/9--
D|--------------------------------------------------------------
A|--------------------------------------------------------------
E|--------------------------------------------------------------

Hawaaon se main yun ulajhta nahi tha
E|--------------------------------------------------------------
B|--------------------------------------------------------------
G|--6--6--4--6-----4--6--4--6-----4--6--4--6-----4--6--4---6/7--
D|--------------------------------------------------------------
A|--------------------------------------------------------------
E|--------------------------------------------------------------

Hai seene mein dil bhi
Kahaan thi mujhe ye khabar
E|--------------------------------------------------------------------------
B|--------------------------------------------------------------------------
G|-----4--4--2--4-----2--------------2--4--2--4-----4--4--2---4/6--2--2-----
D|-----------------------4--2--4--------------------------------------------
A|--------------------------------------------------------------------------
E|--------------------------------------------------------------------------

Kya haal ho gaya hai ye mera
E|-----------------------------------------------
B|------5/7--5--5--3--3--2---2h-3p2--3---3/5-----
G|--4--------------------------------------------
D|-----------------------------------------------
A|-----------------------------------------------
E|-----------------------------------------------

Aankhein meri har jagah
Dhoondhe tujhe bewajah
E|--------------------------------------------------------------------------------
B|---2h-3p2-----------------------------------------------------------------------
G|-----------4-----6--7--4------6/7--4--2-----4--4--4--6--7--4------6/7--4--2-----
D|--------------------------------------------------------------------------------
A|--------------------------------------------------------------------------------
E|--------------------------------------------------------------------------------
tabs and chords, guitar tabs, music transcription, music technology, deep learning, music information retrieval, transcribe into tabs & chords, chordify, music renditions, songsterr, reverbnation, tabulature, bollywood chords, ultimate guitar, yousician, guitar lessons, acoustic guitar, electric guitar, guitar tuner, 911 tabs