Guitar Tabs for Three Empty Words - Shawn Mendes

Verse:
C                    G                    E7                   G
E|--------x-----------x--------x-----------x--------x-----------x--------x-----------x--
B|-----1--x--------1--x-----3--x--------3--x-----1--x--------1--x-----0--x--------3--x--
G|-----0--x-----0-----x-----0--x-----0-----x-----0--x-----0-----x-----0--x-----0-----x--
D|--------x--2--------x--------x--0--------x--------x--2--------x--------x--0--------x--
A|-----3--x-----------x--------x-----------x-----0--x-----------x--------x-----------x--
E|--------x-----------x-----3--x-----------x--------x-----------x-----3--x-----------x--
       F                    F                    F                    F
E|--------x-----------x--------x-----------x--------x-----------x--------x-----------x--
B|-----1--x--------1--x-----1--x--------1--x-----1--x--------1--x-----1--x--------1--x--
G|-----2--x-----2-----x-----2--x-----2-----x-----2--x-----2-----x-----2--x-----2-----x--
D|--------x--3--------x--------x--3--------x--------x--3--------x--------x--3--------x--
A|--------x-----------x--------x-----------x--------x-----------x--------x-----------x--
E|-----1--x-----------x-----1--x-----------x-----1--x-----------x-----1--x-----------x--
 
x4

Pre-chorus:
 a                    G                    F                    F
E|--------x-----------x--------x-----------x--------x-----------x--------x-----------x--
B|-----1--x--------1--x-----0--x--------0--x-----1--x--------1--x-----1--x--------1--x--
D|--------x--2--------x--------x--0--------x--------x--3--------x--------x--3--------x--
A|-----0--x-----------x--------x-----------x--------x-----------x--------x-----------x--
E|--------x-----------x-----3--x-----------x-----1--x-----------x-----1--x-----------x--
 
 x2
 
 
       G                    a                    F                    C
E|--------x-----------x--------x-----------x--------x-----------x--------x-----------x--
B|-----0--x--------3--x-----1--x--------1--x-----1--x--------1--x-----1--x--------1--x--
G|-----0--x-----0-----x-----2--x-----2-----x-----2--x-----2-----x-----0--x-----0-----x--
D|--------x--0--------x--------x--2--------x--------x--3--------x--------x--2--------x--
A|--------x-----------x-----0--x-----------x--------x-----------x-----3--x-----------x--
E|-----3--x-----------x--------x-----------x-----1--x-----------x--------x-----------x--
       a                    e                    F                    C
E|--------x-----------x--------x-----------x--------x-----------x--------x-----------x--
B|-----1--x--------1--x-----0--x--------0--x-----1--x--------1--x-----1--x--------1--x--
G|-----2--x-----2-----x-----0--x-----0-----x-----2--x-----2-----x-----0--x-----0-----x--
D|--------x--2--------x--------x--2--------x--------x--3--------x--------x--2--------x--
A|-----0--x-----------x--------x-----------x--------x-----------x-----3--x-----------x--
E|--------x-----------x-----0--x-----------x-----1--x-----------x--------x-----------x--

x2

Bridge:

E|--------0--------0--------0--------0-----
B|-----1--------1--------1--------1--------
G|--0--------1--------2--------3-----------
D|-----------------------------------------
A|-----------------------------------------
E|-----------------------------------------

E|-----------------------------------------------------------
B|--1--------1-----1--------1-----1--------1-----1--------1--
G|--2-----2--------2-----2--------0-----0--------0-----0-----
D|-----2--------------2--------------0--------------0--------
A|-----------------------------------------------------------
E|--1--------------1--------------3--------------3-----------


tabs and chords, guitar tabs, music contests, music covers, songsterr, reverbnation, renditions, tabulature, bollywood chords, ultimate guitar, yousician, guitar lessons, torrins, fender, gibson, acoustic guitar, electric guitar, youtube covers, gootar, guitar tuner, A-Z tabs, 911 tabs