Guitar Tabs for In My Blood - Shawn Mendes


E|--5-----5-----5-----5-----------------------------------
B|--------------------------------3-----3-----3-----3-----
G|--------------------------------------------------------
D|--3--3-----3-----3--------------------------------------
A|-----------------------------1-----1-----1-----1--------
E|--------------------------------------------------------

E|--------------------------------------------------------
B|-----3-----3-----3------3\5--------3-----3-----3-----3--
G|--------------------------------------------------------
D|--------------------------------------------------------
A|-----------------------------------1--1-----1-----1-----
E|--0-----0-----0-----0-----------------------------------




tabs and chords, guitar tabs, music contests, music covers, songsterr, reverbnation, renditions, tabulature, bollywood chords, ultimate guitar, yousician, guitar lessons, torrins, fender, gibson, acoustic guitar, electric guitar, youtube covers, gootar, guitar tuner, A-Z tabs, 911 tabs