Guitar Tabs for Stitches - Shawn Mendes Tabs

(/) Slide Up  (\) Slide Down  (h) Hammer On  (p) Pull Off  (b) Bend (r) Release (v) Vibrato

Tabs for Song : Stitches

I thought that I've been hurt before
E|--------------------------------
B|---9/11-9------9/11-9-----------
G|-----------10----------10-8--10-
D|--------------------------------
A|--------------------------------
E|--------------------------------

But no one's ever left me quite this sore
E|--------------------------------
B|--------------------------------
G|--8--10-8--10-8--10-8-----8-----
D|-----------------------11----11-
A|--------------------------------
E|--------------------------------

Your words cut deeper than a knife (Same as Part 1)

Now I need someone to breathe me back to life
E|-----------------------------------------
B|-----------------------------------------
G|-----8--10-8--8--8-----10-8--8-----8-----
D|--11----------------11----------11----11-
A|-----------------------------------------
E|-----------------------------------------

Got a feeling that I'm going under
E|--------------------8--8--8--------
B|--9--11-11-11-11-11----------11-11-
G|-----------------------------------
D|-----------------------------------
A|-----------------------------------
E|-----------------------------------

But I know that I'll make it out alive
E|--------------------8--8--8--9--9--
B|--9--11-11----11-11----------------
G|-----------------------------------
D|-----------------------------------
A|-----------------------------------
E|-----------------------------------

If I quit calling you my lover Move on
E|-----------------8--8--8--------9--8-----
B|--11-11-11-11-11----------11-11-------11-
G|-----------------------------------------
D|-----------------------------------------
A|-----------------------------------------
E|-----------------------------------------

You watch me bleed until I can't breathe I'm shaking
E|--------------------------------------------
B|--------------9-----------------------------
G|--10-8-----10----10-8-----10-8--8-----8-----
D|--------11-------------------------11----11-
A|--------------------------------------------
E|--------------------------------------------

falling onto my knees And now that
E|--------------------------------------
B|-----9--------------------------------
G|--10----10-8-----10-8--8-----10-8-----
D|-----------------------------------11-
A|--------------------------------------
E|--------------------------------------

I'm without your kisses I'll be needing stitches
E|--------------------
B|-----------9--------
G|--------------10-8--
D|--8--10-11----------
A|--------------------
E|--------------------
tabs and chords, guitar tabs, music transcription, music technology, deep learning, music information retrieval, transcribe into tabs & chords, chordify, music renditions, songsterr, reverbnation, tabulature, bollywood chords, ultimate guitar, yousician, guitar lessons, acoustic guitar, electric guitar, guitar tuner, 911 tabs