Guitar Tabs for Thinking Out Loud - Ed Sheeran

(/) Slide Up  (\) Slide Down  (h) Hammer On  (p) Pull Off  (b) Bend (r) Release (v) Vibrato (x) Muted

Tabs for Song : 

Song lyrics here
E|--------------------------------------------------------------------------------------------------------
B|--------------------------------------------------------------------------------------------------------
G|-----2--4--2-----------------------------2--4--2-----------------------2--4--2--------------------------
D|--4-----------4--2--0--2--4-----0-----4-----------4--4--2--0--0-----4-----------4--4--2--0--2--4-----0--
A|-----------------------------2--------------------------------------------------------------------2-----
E|--------------------------------------------------------------------------------------------------------

E|-----------------------------------0--2-----------------0--2-----0-----0--3--2--0-----------0--2--------
B|--------------------------------3-----------------0--3-----------------------------3-----3--------------
G|--------2--4--2-----------------------------2--------------------------------------------------------2--
D|-----4-----------4--2--0--0-----------------------------------------------------------------------------
A|--------------------------------------------------------------------------------------------------------
E|--------------------------------------------------------------------------------------------------------

E|-----------0--2-----0-----0--3--2--0-----------2--0-----0--------------2--3--2--3--2--0-----0-----2--2--
B|-----0--3-----------------------------3-----3--------3-----3--0--------------------------3-----3--------
G|-----------------------------------------------------------------2--------------------------------------
D|--------------------------------------------------------------------------------------------------------
A|--------------------------------------------------------------------------------------------------------
E|--------------------------------------------------------------------------------------------------------

E|--2--3--2--0-----------0-----2--3--2--3--2--0--------------2--2-----2--3--2--------------0-----------0--
B|--------------3--3--3--------------------------3--3-----3--------------------3--3--3--3-----------3-----
G|-----------------------------------------------------2-----------------------------------------4--------
D|--------------------------------------------------------------------------------------------------------
A|--------------------------------------------------------------------------------------------------------
E|--------------------------------------------------------------------------------------------------------

E|--2--0-----0--2-----5--5--5--3--3--3--2--2-----5--5--5--3--3--3--2--2--2--5--0-----0-----5--5--5--3--3--
B|--------3-----------------------------------------------------------------------3-----------------------
G|--------------------------------------------------------------------------------------------------------
D|--------------------------------------------------------------------------------------------------------
A|--------------------------------------------------------------------------------------------------------
E|--------------------------------------------------------------------------------------------------------

E|--3--2--2-----------0--2--0-----0--------0-----2-----0--------------------------------
B|--------------0--3-----------3--------3--------------------3-----------3-----2-----3--
G|-----------------------------------------------------------------2--------------------
D|--------------------------------------------------------------------------------------
A|--------------------------------------------------------------------------------------
E|--------------------------------------------------------------------------------------
tabs and chords, guitar tabs, music contests, music covers, songsterr, reverbnation, renditions, tabulature, bollywood chords, ultimate guitar, yousician, guitar lessons, torrins, fender, gibson, acoustic guitar, electric guitar, youtube covers, gootar, guitar tuner, A-Z tabs, 911 tabs