Guitar Tabs for Ed Sheeran - Thinking Out Loud

Ed Sheeran - Thinking Out Loud

1st Verse

     D         D/F#                        G                 A
          When your legs don’t work like they used to before
E|----------------------------------------------------------------------
B|---3h---------3-----------3-----------------0--------------2-----------
G|---0h2--------2-----------2-----------------0--------------2------2h4--
D|---0h------------------------------------------------------2-----------
A|-----------------------------------------------------------0--0--------
E|--------------2-----2-----------2--------3-----------------------------

     D         D/F#                        G                 A
        And I can't sweep you off of your feet
E|----------------------------------------------------------------------
B|---3h---------3-----------3-----------------0--------------2-----------
G|---0h2--------2-----------2-----------------0--------------2------2h4--
D|---0h------------------------------------------------------2-----------
A|-----------------------------------------------------------0--0--------
E|--------------2-----2-----------2--------3-----------------------------

     D         D/F#                        G                 A
        Will your mouth still remember the taste of my love
E|----------------------------------------------------------------------
B|---3h---------3-----------3-----------------0--------------2-----------
G|---0h2--------2-----------2-----------------0--------------2------2h4--
D|---0h------------------------------------------------------2-----------
A|-----------------------------------------------------------0--0--------
E|--------------2-----2-----------2--------3-----------------------------

     D        D/F#                        G                 A
        Will your eyes still smile        from your cheeks
E|----------------------------------------------------------------------
B|---3h---------3-----------3-----------------0--------------2-----------
G|---0h2--------2-----------2-----------------0--------------2------2h4--
D|---0h------------------------------------------------------2-----------
A|-----------------------------------------------------------0--0--------
E|--------------2-----2-----------2--------3-----------------------------

     D         D/F#                        G                 A
          When your legs don’t work like they used to before
E|----------------------------------------------------------------------
B|---3h---------3-----------3-----------------0--------------2-----------
G|---0h2--------2-----------2-----------------0--------------2------2h4--
D|---0h------------------------------------------------------2-----------
A|-----------------------------------------------------------0--0--------
E|--------------2-----2-----------2--------3-----------------------------

            D     D/F#                G          A
And darling I    will   be   loving   you      till we’re 
E|----------------------------------------------------------
B|---------3h------3--------3-----------0--------2-----------
G|---------0h2-----2--------2-----------0--------2------2h4--
D|---------0h------------------------------------2-----------
A|-----------------------------------------------0--0--------
E|-----------------2-----2-----2-----3-----------------------

     D         D/F#                        G                 A
 seventy.
E|----------------------------------------------------------------------
B|---3h---------3-----------3-----------------0--------------2-----------
G|---0h2--------2-----------2-----------------0--------------2------2h4--
D|---0h------------------------------------------------------2-----------
A|-----------------------------------------------------------0--0--------
E|--------------2-----2-----------2--------3-----------------------------

            D   D/F#                   G         A
   And babymy   heart could still fall as      hard at twenty
E|----------------------------------------------------------
B|---------3h---3--------3-----------------0-----2-----------
G|---------0h2--2--------2-----------------0-----2------2h4--
D|---------0h------------------------------------2-----------
A|-----------------------------------------------0--0--------
E|--------------2-----2--------2--------3--------------------

            D   D/F#                   G               A
       -three                            I'm thinking 'bout how
E|----------------------------------------------------------------
B|---------3h---3--------3-----------------0-----------2-----------
G|---------0h2--2--------2-----------------0-----------2------2h4--
D|---------0h------------------------------------------2-----------
A|-----------------------------------------------------0--0--------
E|--------------2-----2--------2--------3--------------------------

Pre-Chorus

   Em                       A7       D
   People fall in love in mysterious ways   
E|--0-----------------------0--------2--
B|--0-----------------------2--------3--
G|--0-----------------------0--------2--
D|--2-----------------------2--------0--
A|--2-----------------------0-----------
E|--0-----------------------------------

   Em                       A7       
  Maybe just the touch of a hand
E|--0-----------------------0--
B|--0-----------------------2--
G|--0-----------------------0--
D|--2-----------------------2--
A|--2-----------------------0--
E|--0--------------------------

       Em                            A7       Bm
 Well, me I fall in love with you every single day
E|-----0-----------------------------0--------2--
B|-----0-----------------------------2--------3--
G|-----0-----------------------------0--------4--
D|-----2-----------------------------2--------4--
A|-----2-----------------------------0--------2--
E|-----0-----------------------------------------

       Em                      A7       
   And I just wanna tell you I am 
E|-----0-----------------------0-----
B|-----0-----------------------2-----
G|-----0-----------------------0-----
D|-----2-----------------------2-----
A|-----2-----------------------0-----
E|-----0-----------------------------


Chorus

            D         D/F#                        G                A
So, honey, now                                               Take me into your loving
E|----------------------------------------------------------------------------
B|---------3h---------3-----------3-----------------0--------------2-----------
G|---------0h2--------2-----------2-----------------0--------------2------2h4--
D|---------0h------------------------------------------------------2-----------
A|-----------------------------------------------------------------0--0--------
E|--------------------2-----2-----------2--------3-----------------------------

     D         D/F#                        G                 A
    arms                                                    Kiss me under the light
E|----------------------------------------------------------------------
B|---3h---------3-----------3-----------------0--------------2-----------
G|---0h2--------2-----------2-----------------0--------------2------2h4--
D|---0h------------------------------------------------------2-----------
A|-----------------------------------------------------------0--0--------
E|--------------2-----2-----------2--------3-----------------------------

     D         D/F#                        G                 A
of a thousand stars                                       Place your hand on
E|----------------------------------------------------------------------
B|---3h---------3-----------3-----------------0--------------2-----------
G|---0h2--------2-----------2-----------------0--------------2------2h4--
D|---0h------------------------------------------------------2-----------
A|-----------------------------------------------------------0--0--------
E|--------------2-----2-----------2--------3-----------------------------

           D        D/F#                        G                 A
My beating heart               And I’m thinking out              loud
E|----------------------------------------------------------------------------
B|---------3h---------3-----------3-----------------0--------------2-----------
G|---------0h2--------2-----------2-----------------0--------------2------2h4--
D|---------0h------------------------------------------------------2-----------
A|-----------------------------------------------------------------0--0--------
E|--------------------2-----2-----------2--------3-----------------------------

             Bm    A     G     D/F#  Em      A7     D       
 That maybe  we   found  love  right where   we     are
E|-----------2-----0-----3-----2-----0--------0-----2--
B|-----------3-----2-----3-----3-----0--------2-----3--
G|-----------4-----2-----0-----2-----0--------0-----2--
D|-----------4-----2-----0-----0-----2--------2-----0--
A|-----------2-----0-----2-----------2--------0--------
E|-----------------------3-----2-----0-----------------

2nd Verse

     D         D/F#                         G                 A
         When my hairs all but gone and my memory fades
E|----------------------------------------------------------------------
B|---3h---------3-----------3-----------------0--------------2-----------
G|---0h2--------2-----------2-----------------0--------------2------2h4--
D|---0h------------------------------------------------------2-----------
A|-----------------------------------------------------------0--0--------
E|--------------2-----2-----------2--------3-----------------------------

     D         D/F#                        G                 A
        And the crowds don't remember my name
E|----------------------------------------------------------------------
B|---3h---------3-----------3-----------------0--------------2-----------
G|---0h2--------2-----------2-----------------0--------------2------2h4--
D|---0h------------------------------------------------------2-----------
A|-----------------------------------------------------------0--0--------
E|--------------2-----2-----------2--------3-----------------------------

     D         D/F#                        G                 A
           When my   hands   don’t    play  the strings the same way
E|----------------------------------------------------------------------
B|---3h---------3-----------3-----------------0--------------2-----------
G|---0h2--------2-----------2-----------------0--------------2------2h4--
D|---0h------------------------------------------------------2-----------
A|-----------------------------------------------------------0--0--------
E|--------------2-----2-----------2--------3-----------------------------

     D        D/F#                            G                 A
          I know you will still love me the same
E|-------------------------------------------------------------------------
B|---3h---------3-----------3--------------------0--------------2-----------
G|---0h2--------2-----------2--------------------0--------------2------2h4--
D|---0h---------------------------------------------------------2-----------
A|--------------------------------------------------------------0--0--------
E|--------------2-----2-----------2-----------3-----------------------------

              D     D/F#                G          A
 'Cause honey your soul   can  never grow         old it's
E|-------------------------------------------------------------
B|------------3h------3--------3-----------0--------2-----------
G|------------0h2-----2--------2-----------0--------2------2h4--
D|------------0h------------------------------------2-----------
A|--------------------------------------------------0--0--------
E|--------------------2-----2-----2-----3-----------------------

     D         D/F#                        G                 A
evergreen
E|----------------------------------------------------------------------
B|---3h---------3-----------3-----------------0--------------2-----------
G|---0h2--------2-----------2-----------------0--------------2------2h4--
D|---0h------------------------------------------------------2-----------
A|-----------------------------------------------------------0--0--------
E|--------------2-----2-----------2--------3-----------------------------

            D   D/F#                   G         A
 and baby your  smile's  forever       in   my mind
E|----------------------------------------------------------
B|---------3h---3--------3-----------------0-----2-----------
G|---------0h2--2--------2-----------------0-----2------2h4--
D|---------0h------------------------------------2-----------
A|-----------------------------------------------0--0--------
E|--------------2-----2--------2--------3--------------------

            D   D/F#                   G               A
   And memory                          I'm thinking 'bout how
E|----------------------------------------------------------------
B|---------3h---3--------3-----------------0-----------2-----------
G|---------0h2--2--------2-----------------0-----------2------2h4--
D|---------0h------------------------------------------2-----------
A|-----------------------------------------------------0--0--------
E|--------------2-----2--------2--------3--------------------------

2nd Pre-Chorus

   Em                       A7       D
   People fall in love in mysterious ways   
E|--0-----------------------0--------2--
B|--0-----------------------2--------3--
G|--0-----------------------0--------2--
D|--2-----------------------2--------0--
A|--2-----------------------0-----------
E|--0-----------------------------------

   Em                       A7       
  Maybe it's all part of a plan
E|--0-----------------------0--
B|--0-----------------------2--
G|--0-----------------------0--
D|--2-----------------------2--
A|--2-----------------------0--
E|--0--------------------------

       Em                            A7       Bm
   Oh, I'll just keep on making the same mistakes
E|-----0-----------------------------0--------2--
B|-----0-----------------------------2--------3--
G|-----0-----------------------------0--------4--
D|-----2-----------------------------2--------4--
A|-----2-----------------------------0--------2--
E|-----0-----------------------------------------

       Em                      A7       
  Hoping that you’ll understand
E|-----0-----------------------0-----
B|-----0-----------------------2-----
G|-----0-----------------------0-----
D|-----2-----------------------2-----
A|-----2-----------------------0-----
E|-----0-----------------------------


Chorus

            D         D/F#                        G                A
So, baby, now                                               Take me into your loving
E|----------------------------------------------------------------------------
B|---------3h---------3-----------3-----------------0--------------2-----------
G|---------0h2--------2-----------2-----------------0--------------2------2h4--
D|---------0h------------------------------------------------------2-----------
A|-----------------------------------------------------------------0--0--------
E|--------------------2-----2-----------2--------3-----------------------------

     D         D/F#                        G                 A
    arms                                                    Kiss me under the light
E|----------------------------------------------------------------------
B|---3h---------3-----------3-----------------0--------------2-----------
G|---0h2--------2-----------2-----------------0--------------2------2h4--
D|---0h------------------------------------------------------2-----------
A|-----------------------------------------------------------0--0--------
E|--------------2-----2-----------2--------3-----------------------------

     D         D/F#                        G                 A
of a thousand stars                                       Place your hand on
E|----------------------------------------------------------------------
B|---3h---------3-----------3-----------------0--------------2-----------
G|---0h2--------2-----------2-----------------0--------------2------2h4--
D|---0h------------------------------------------------------2-----------
A|-----------------------------------------------------------0--0--------
E|--------------2-----2-----------2--------3-----------------------------

           D        D/F#                        G                 A
My beating heart               And I’m thinking out              loud
E|----------------------------------------------------------------------------
B|---------3h---------3-----------3-----------------0--------------2-----------
G|---------0h2--------2-----------2-----------------0--------------2------2h4--
D|---------0h------------------------------------------------------2-----------
A|-----------------------------------------------------------------0--0--------
E|--------------------2-----2-----------2--------3-----------------------------

             Bm    A     G     D/F#  Em      A7     D       
 That maybe  we   found  love  right where   we     are
E|-----------2-----0-----3-----2-----0--------0-----2--
B|-----------3-----2-----3-----3-----0--------2-----3--
G|-----------4-----2-----0-----2-----0--------0-----2--
D|-----------4-----2-----0-----0-----2--------2-----0--
A|-----------2-----0-----2-----------2--------0--------
E|-----------------------3-----2-----0-----------------

Guitar Solo   
    D     D/F#        G     A
E|-----------------------------------
B|---3h---3-----3--------0--2--------
G|---0h2--2-----2--------0--2---2h4--    4X
D|---0h---------------------2--------
A|--------------------------0--------
E|--------2--2-----2--3--------------

Final Chorus

            D         D/F#                        G                A
So, baby, now                                               Take me into your loving
E|----------------------------------------------------------------------------
B|---------3h---------3-----------3-----------------0--------------2-----------
G|---------0h2--------2-----------2-----------------0--------------2------2h4--
D|---------0h------------------------------------------------------2-----------
A|-----------------------------------------------------------------0--0--------
E|--------------------2-----2-----------2--------3-----------------------------

     D         D/F#                        G                 A
    arms                                                    Kiss me under the light
E|----------------------------------------------------------------------
B|---3h---------3-----------3-----------------0--------------2-----------
G|---0h2--------2-----------2-----------------0--------------2------2h4--
D|---0h------------------------------------------------------2-----------
A|-----------------------------------------------------------0--0--------
E|--------------2-----2-----------2--------3-----------------------------

     D         D/F#                        G                 A
of a thousand stars                                       Place your hand on
E|----------------------------------------------------------------------
B|---3h---------3-----------3-----------------0--------------2-----------
G|---0h2--------2-----------2-----------------0--------------2------2h4--
D|---0h------------------------------------------------------2-----------
A|-----------------------------------------------------------0--0--------
E|--------------2-----2-----------2--------3-----------------------------

           D        D/F#                        G                 A
My beating heart               And I’m thinking out              loud
E|----------------------------------------------------------------------------
B|---------3h---------3-----------3-----------------0--------------2-----------
G|---------0h2--------2-----------2-----------------0--------------2------2h4--
D|---------0h------------------------------------------------------2-----------
A|-----------------------------------------------------------------0--0--------
E|--------------------2-----2-----------2--------3-----------------------------

             Bm    A     G     D/F#  Em      A7     D       
 That maybe  we   found  love  right where   we     are
E|-----------2-----0-----3-----2-----0--------0-----2--
B|-----------3-----2-----3-----3-----0--------2-----3--
G|-----------4-----2-----0-----2-----0--------0-----2--
D|-----------4-----2-----0-----0-----2--------2-----0--
A|-----------2-----0-----2-----------2--------0--------
E|-----------------------3-----2-----0-----------------

             Bm    A     G     D/F#  Em      A7     D       
 That maybe  we   found  love  right where   we     are
E|-----------2-----0-----3-----2-----0--------0-----2--
B|-----------3-----2-----3-----3-----0--------2-----3--
G|-----------4-----2-----0-----2-----0--------0-----2--
D|-----------4-----2-----0-----0-----2--------2-----0--
A|-----------2-----0-----2-----------2--------0--------
E|-----------------------3-----2-----0-----------------

             Bm    A     G     D/F#  Em      A7     D       
 That maybe  we   found  love  right where   we     are
E|-----------2-----0-----3-----2-----0--------0-----2--
B|-----------3-----2-----3-----3-----0--------2-----3--
G|-----------4-----2-----0-----2-----0--------0-----2--
D|-----------4-----2-----0-----0-----2--------2-----0--
A|-----------2-----0-----2-----------2--------0--------
E|-----------------------3-----2-----0-----------------
tabs and chords, guitar tabs, music transcription, music technology, deep learning, music information retrieval, transcribe into tabs & chords, chordify, music renditions, songsterr, reverbnation, tabulature, bollywood chords, ultimate guitar, yousician, guitar lessons, acoustic guitar, electric guitar, guitar tuner, 911 tabs