Guitar Tabs for The Beatles - Something (guitar Solo)

The Beatles - Something (Guitar Solo)

1st Part
E|--------------------------------------
B|--------8---------------8b10-10r8-----
G|---7/9-----9------7h9--------------9--
D|--------------------------------------
A|--------------------------------------
E|--------------------------------------

2nd Part
E|--------------------------------------------------------------
B|---------8/10----8-----10/11-13-13-13b15r13----15b17r15-10-10-
G|---7/9--------------------------------------------------------
D|--------------------------------------------------------------
A|--------------------------------------------------------------
E|--------------------------------------------------------------

3rd Part
E|-------------------------
B|-----13-13\------8---8\--
G|--/14----------/9--------
D|-------------------------
A|-------------------------
E|-------------------------

4th Part 
E|-----------------------------------------------------------12-11-10-
B|-----------------7--7-----12----10b12r10b12r10-8--12-11-10----------
G|------------6/7-----------------------------------------------------
D|--7---9\7-----------------------------------------------------------
A|--------------------------------------------------------------------
E|--------------------------------------------------------------------

5th Part
E|-----------------------------------------------------------------------------10b12r10-8---8h10-8--
B|--------------------------------------------------------------------------8-----------------------
G|---7b-9r-7b-9r-7b-9r7--5------7b-9r-7b-9r-7b-9r7--5------7b-9r7--5---7/9--------------------------
D|--------------------------------------------------------------------------------------------------
A|--------------------------------------------------------------------------------------------------
E|--------------------------------------------------------------------------------------------------

6th Part

E|--------------------------------
B|--10-10-12b13r12-10-11h12-12/13-
G|--------------------------------
D|--------------------------------
A|--------------------------------
E|--------------------------------
tabs and chords, guitar tabs, music transcription, music technology, deep learning, music information retrieval, transcribe into tabs & chords, chordify, music renditions, songsterr, reverbnation, tabulature, bollywood chords, ultimate guitar, yousician, guitar lessons, acoustic guitar, electric guitar, guitar tuner, 911 tabs