Guitar Tabs for Something

(/) Slide Up  (\) Slide Down  (h) Hammer On  (p) Pull Off  (b) Bend (r) Release (v) Vibrato (x) Muted

Tabs & Chords
BPM : 170.0
Check Track 2 for Chord Positions 

    Em                                  C           G     Em                                     
E|-----------------------------------------------------------------------------------------------
B|-----------------------0--0-----------0-----------------0--------------------------0-----------
G|--0--0-----------0-----------------------------------------------------------0--------0--------
D|-----------4--------------------------------0-----0--------------4-----4--------------------4--
A|-----------------------------2--3--------------------------2-----------------------------------
E|-----------------------------------------------------------------------------------------------

                   C        D           Em                                  C              G  
E|--------------------------------------------------------------------------------------------
B|--------------------------0-----------------------------------------------------------------
G|--------------------------------------------------0-----0-----------------------------------
D|-----------------0--0-----------------4-----4--------4--------4--------------------0-----0--
A|-----2--3--2--------------------2-----------------------------------3-----0-----2-----------
E|--------------------------------------------------------------------------------------------

             Am          G              C                       D                 Em          
E|--------------------------------------------------------------0-----0-----------------------
B|-----------0-----------0--3-----------------3-----------------------------------------------
G|-----------------0--------------0-----------------------------------------------------------
D|--------------------------------------------------------0--------0--------2-----4-----------
A|-----0--------------------------------3-----------3--------------------------2--------2--3--
E|--------------------------------------------------------------------------------------------

          C              G              D                    Em                C                 
E|-----------------------------------------------------------------------------------------------
B|-----0-----0--------------3-----------------------------0-----0--------------------------------
G|--------------------------------2--------------------------------------------------0-----------
D|-----------------0--------------------2-----0--2--0--------2--------------------------------0--
A|--2-----2--------------3--------------------------------------------2-----2--3--------2--------
E|-----------------------------------------------------------------------------------------------

       
E|-----
B|-----
G|-----
D|--0--
A|-----
E|-----

Guitar Tabs for Something






    Em                                  C           G     Em                                     
E|--0-----------------------------------0-----------3-----0--------------------------------------
B|--0-----------------------------------1-----------3-----0--------------------------------------
G|--0-----------------------------------0-----------4-----0--------------------------------------
D|--2-----------------------------------2-----------5-----2--------------------------------------
A|--2-----------------------------------3-----------5-----2--------------------------------------
E|--0-----------------------------------------------3-----0--------------------------------------

                   C        D           Em                                  C              G  
E|-----------------0--------2-----------0-----------------------------------0--------------3--
B|-----------------1--------3-----------0-----------------------------------1--------------3--
G|-----------------0--------2-----------0-----------------------------------0--------------4--
D|-----------------2--------0-----------2-----------------------------------2--------------5--
A|-----------------3--------------------2-----------------------------------3--------------5--
E|--------------------------------------0--------------------------------------------------3--

             Am          G              C                       D                 Em          
E|-----------0-----------3--------------0-----------------------2-----------------0-----------
B|-----------1-----------3--------------1-----------------------3-----------------0-----------
G|-----------2-----------4--------------0-----------------------2-----------------0-----------
D|-----------2-----------5--------------2-----------------------0-----------------2-----------
A|-----------0-----------5--------------3-----------------------------------------2-----------
E|-----------------------3--------------------------------------------------------0-----------

          C              G              D                    Em                C                 
E|--------0--------------3--------------2--------------------0-----------------0-----------------
B|--------1--------------3--------------3--------------------0-----------------1-----------------
G|--------0--------------4--------------2--------------------0-----------------0-----------------
D|--------2--------------5--------------0--------------------2-----------------2-----------------
A|--------3--------------5-----------------------------------2-----------------3-----------------
E|-----------------------3-----------------------------------0-----------------------------------

       
E|-----
B|-----
G|-----
D|-----
A|-----
E|-----

tabs and chords, guitar tabs, music transcription, music technology, deep learning, music information retrieval, transcribe into tabs & chords, chordify, music renditions, songsterr, reverbnation, tabulature, bollywood chords, ultimate guitar, yousician, guitar lessons, acoustic guitar, electric guitar, guitar tuner, 911 tabs