Guitar Tabs for Something

(/) Slide Up  (\) Slide Down  (h) Hammer On  (p) Pull Off  (b) Bend (r) Release (v) Vibrato (x) Muted

Tabs for Song : 

Song lyrics here
E|-----------------------------------------------5--------------------------------------------------------
B|--4--------------4-----------------------------6--------------4--------------4--------------------------
G|-----------------5-----------------------------5-----------------------------5--------------------------
D|--5--------------5--------------5-----------------------------5--------------5--------------5-----------
A|--6-----------------------------5-----------------------------6-----------------------------5-----------
E|--------------------------------------------------------------------------------------------------------

E|--5--------------4-----------------------------4--------------6-----------------------------------------
B|--6--------------4-----------------------------4-----------------------------4--------------4-----------
G|--5--------------5--------------4--------------5--------------------------------------------5-----------
D|-----------------6--------------5--------------6-----------------------------5--------------5-----------
A|--------------------------------5-----------------------------5--------------6--------------------------
E|--------------------------------------------------------------6-----------------------------------------

E|-----------------5--
B|-----------------6--
G|-----------------5--
D|--5-----------------
A|--5-----------------
E|--------------------

Song lyrics here
E|--
B|--
G|--
D|--
A|--
E|--

Paste any tab in acousterr's tab maker and we'll play it !!!
Now supports capo and sound effects for vibrato/pull-off/hammer/bends/mutes etc !!! Checkout help section
tabs and chords, guitar tabs, music transcription, music technology, deep learning, music information retrieval, transcribe into tabs & chords, chordify, music renditions, songsterr, reverbnation, tabulature, bollywood chords, ultimate guitar, yousician, guitar lessons, acoustic guitar, electric guitar, guitar tuner, 911 tabs