Bass Tabs for The Beatles - Long Tall Sally

The Beatles - Long Tall Sally

Intro 
(Intro, after the 1st verse and after the first solo)
G|-----------------------------------
D|--3-----3-----3-----3--3--1--0-----
A|--------------------------------3--
E|-----------------------------------

1st Verse
G|--------------------------------------------------------------------------------------------------
D|-----0--3--0-----0--3--0-----------0--1--0-----------2--5--2-----0--3--0--------------------------
A|--1-----------1--------------0--3-----------3--1--3-----------1--------------0--1--2--3--2--1--0--
E|--------------------------1-----------------------------------------------1-----------------------

Last Note
G|-----
D|--3--
A|-----
E|--1--
tabs and chords, guitar tabs, music transcription, music technology, deep learning, music information retrieval, transcribe into tabs & chords, chordify, music renditions, songsterr, reverbnation, tabulature, bollywood chords, ultimate guitar, yousician, guitar lessons, acoustic guitar, electric guitar, guitar tuner, 911 tabs