Guitar Tabs for Stand Tall

(/) Slide Up  (\) Slide Down  (h) Hammer On  (p) Pull Off  (b) Bend (r) Release (v) Vibrato (x) Muted

Tabs for Song : Capo at 8 fret

Leonie (Capo 8)

Chords:

   Am     D     G    G/F#   Em
E|--0-----2-----3-----3-----0--
B|--1-----3-----3-----3-----0--
G|--2-----2-----0-----0-----0--
D|--2-----0-----0-----0-----2--
A|--0-----0-----2-----0-----2--
E|--0-----0-----3-----2-----0--



Markus (Capo 3)

Intro Riff / Interlude

E|-----------------------------------------------------------------------------------
B|-----------------------------------------------------------------------------------
G|--14-14-14-12----12-12-12\9--9---9\7--7---7\5--5--5-----------------5--------------
D|-----------------------------------------------------7--5--7--7--7-----7--5--5--5--
A|-----------------------------------------------------------------------------------
E|-----------------------------------------------------------------------------------

E|--------------------------------------------------
B|--------------------------------------------------
G|------------------------5/7--7--7--7--5---7/-9b---
D|---------------5/7--7-----------------------------
A|--5---5/7--7--------------------------------------
E|--------------------------------------------------


Chords:

   Dm     G     C   Csus2   Am
E|--1-----3-----0-----0-----0-----
B|--3-----3-----1-----1-----1-----
G|--2-----0-----0-----0-----2-----
D|--0-----0-----2-----0-----2-----
A|--0-----2-----3-----3-----0-----
E|--0-----3-----0-----0-----0-----


Stand Tall

What can I say when the words I found 
Fade away into my dreams
And what could have been will always remain an « if »
If you don't say it now

The troubles ahead but we stand back to back
Arise from the ashes of the dawn
It's cruel to blame yourself amidst the pain
The night takes away the day

Be calm when they try to break your bones
'Cause you are faster when you love the run
So set sail just in case the wind grows stronger
Stand tall whenever they come for you

What can I say when the words I found 
Fade away into my dreams
And what could have been will always remain an « if »
If you don't say it now
The troubles ahead but we stand back to back
Arise from the ashes of the dawn

Be calm when they try to break your bones
'Cause you are faster when you love the run
It's cruel to blame yourself amidst the pain
The night takes away the day
So set sail just in case the wind grows stronger
Stand tall whenever they come for you


Music: Leonie Wahl & Markus Richter
Lyrics: Leonie Wahl & Markus Richter
Arrangement: Leonie Wahl & Markus Richter
© Leonie Wahl & Markus Richter, 2018

tabs and chords, guitar tabs, music transcription, music technology, deep learning, music information retrieval, transcribe into tabs & chords, chordify, music renditions, songsterr, reverbnation, tabulature, bollywood chords, ultimate guitar, yousician, guitar lessons, acoustic guitar, electric guitar, guitar tuner, 911 tabs