Guitar Tabs for Long Long Night

(/) Slide Up  (\) Slide Down  (h) Hammer On  (p) Pull Off  (b) Bend (r) Release (v) Vibrato (x) Muted

Tabs for Song : 
BPM : 100

Song lyrics here 
E|--------------------------------------------------------------------------------------------------------------
B|--------------------------------------------------------------------------------------------------------------
G|--------------------------------------------------------------------------------------------------------------
D|-----------------------3--0-----------------------------------------------------------------3--0--------------
A|--------0--3--5--5--5--------3--0--3--5--------0--3--5--5--3--0--------------0--3--5--5--5--------3--0--3--5--
D|--0--0-----------------------------------0--0--------------------5-3--0--0-----------------------------------

E|-----------------------------
B|-----------------------------
G|-----------------------------
D|-----------------------------
A|-----0--3-----------------
D|--3--------2--2--2--2--3--

E|-----------------------------------------------------------------------------
B|-----------------------------------------------------------------------------
G|-----------------------------------------------------------------------------
D|--3--2--5--------3--5--5-----------------------------------------------3--2--
A|--3--2--3--------3--5--3--------------0--2--3--2--3--5--0--5--7--5--3--------
D|--3--2-----------3--5--------------0-----------------------------------------



E|--------------------------------------------
B|--------------------------------------------
G|--------------------------------------------
D|--3--0--------------------------------------
A|--------3--0--3--5--3--0--------------------
D|--------------------------5--3--0--0--------

2:34  
E|-----------------0--2--------------------------
B|-----------2--2--------2--5--2--0--2-----------
G|--------2--------------------------------------
D|--4--4--------------------------------4--------
A|-----------------------------------------------
D|-----------------------------------------------

E|-----------------------1--3--5--------13-13-10----10-------------------------------
B|--------------1--3--6--------------13----------13----10-8-----8--------------------
G|--------2--5--------------------14-------------------------10----10-7-----7--------
D|--3--3-----------------------------------------------------------------10----7--10-
A|-----------------------------------------------------------------------------------
D|-----------------------------------------------------------------------------------
2:49 unison jam

E|--------------5--8--5-----5--7--8--10-8-----------------5--8--10-13-------17----15-17-15----------------
B|--6--8--6--8-----------8--------------------6--3--6--8--------------15-------------------18-15----15----
G|-----------------------------------------------------------------------------------------------17-------
D|--------------------------------------------------------------------------------------------------------
A|--------------------------------------------------------------------------------------------------------
D|--------------------------------------------------------------------------------------------------------
                                                                           gtr. 1
E|--17-15-17-15----------------------------5--8--5-----5--7--8--10-8-----------5-----5--------------
B|--------------18-15-18-------6--8--6--8-----------8--------------------6--8-----8-----8--6--5-----
G|-----------------------------------------------------------------------------------------------7--
D|--------------------------------------------------------------------------------------------------
A|--------------------------------------------------------------------------------------------------
D|--------------------------------------------------------------------------------------------------
   gtr. 2
E|--5--6--8-----8--13-10----------
B|-----------------------10-8--6--
G|--------------------------------
D|--------------------------------
A|--------------------------------
D|--------------------------------

4:12
E|-----1--5-----3--5--3--5--------------1--3-----3--1--3--5--1-----
B|--3-----------------------6--3-----3--------------------------3--
G|-----------------------------------------------------------------
D|-----------------------------------------------------------------
A|-----------------------------------------------------------------
D|-----------------------------------------------------------------

E|-----1--5-----3--5--3--5--------------1--3-----3--1--3--5--3-----1--------
B|--3-----------------------6--3-----3-----------------------------------3--
G|--------------------------------------------------------------------------
D|--------------------------------------------------------------------------
A|--------------------------------------------------------------------------
D|--------------------------------------------------------------------------


Use manual mode to free up cursor. Paste any tab in acousterr tab maker and we'll play it !!!
tabs and chords, guitar tabs, music transcription, music technology, deep learning, music information retrieval, transcribe into tabs & chords, chordify, music renditions, songsterr, reverbnation, tabulature, bollywood chords, ultimate guitar, yousician, guitar lessons, acoustic guitar, electric guitar, guitar tuner, 911 tabs