Guitar Tabs for The Beatles - All My Loving

The Beatles - All My Loving

1st Verse

           (F#m)         (B7)
Close your eyes and I'll kiss you

   (E)          (C#m)
Tomorrow I'll miss you

  (A)         (F#m)       (D)    (B7)
Remember I'll always be true

           (F#m)         (B7)
And then while I'm away

           (E)       (C#m)
I'll write home every day

 (A)                (B7)       (E)  
And I'll send all my loving to you

2nd Verse

       (F#m)         (B7)
I'll pretend that I'm kissing

   (E)        (C#m)
the lips I am missing

    (A)         (F#m)             (D)    (B7)
And hope that my dreams will come true

       (F#m)         (B7)
And then while I'm away

           (E)       (C#m)
I'll write home every day

         (A)         (B7)     (E)  
And I'll send all my loving to you

Tension

       (C#m)  (C#m7+)        (E)
All my loving I will send to you

       (C#m)   (C#m7+)         (E)
All my loving, darling I'll be true


Guitar Solo

1st Guitar

(A) (A) (E) (E) (F#m) (B7) (E) (E)

2nd Guitar

E|--------------------5-----------9--7--5--4-----4--
B|--------------------------7-----------------5-----
G|--------------------6-----------9--8--6--4-----4--
D|--------------------------7-----------------6-----
A|--2-----------0-----------------------------------
E|-----0--2--4--------------------------------------

E|--7--5--4--2-----2-----9-----------9-----0-----------------------------------------------
B|--------------2--------------10----------------0-----------0-----------0--------0--------
G|--9--8--4--2-----2-----11----------11----1---------0h1---------0h1---------0h1-----------
D|--------------4--------------12-------------------------------------------------------2--
A|--------------------------------------------------------------------------------------2--
E|-----------------------------------------------------------------------------------------

3rd Verse

           (F#m)         (B7)
Close your eyes and I'll kiss you

   (E)          (C#m)
Tomorrow I'll miss you

  (A)         (F#m)       (D)    (B7)
Remember I'll always be true

           (F#m)         (B7)
And then while I'm away

           (E)       (C#m)
I'll write home every day

 (A)                (B7)       (E)  
And I'll send all my loving to you

Final Tension

       (C#m)  (C#m7+)        (E)
All my loving I will send to you

       (C#m)   (C#m7+)         (E)
All my loving, darling I'll be true

       (C#m)  (C#m7+)        (E)
All my loving,        all my loving

       (C#m)  (C#m7+)        (E) (E)
All my loving, I will send to you

----------------------------------------------------------------------------------------
Chords

    A     B7   C#m  C#m7+ 
E|--0-----2-----4-----4--
B|--2-----4-----5-----5--
G|--2-----2-----6-----5--
D|--2-----4-----6-----6--
A|--0-----2-----4-----4--
E|-----------------------

    D     E    F#m 
E|--2-----0-----2--
B|--3-----0-----2--
G|--2-----1-----2--
D|--0-----2-----4--
A|--------2-----4--
E|--------0-----2--
tabs and chords, guitar tabs, music transcription, music technology, deep learning, music information retrieval, transcribe into tabs & chords, chordify, music renditions, songsterr, reverbnation, tabulature, bollywood chords, ultimate guitar, yousician, guitar lessons, acoustic guitar, electric guitar, guitar tuner, 911 tabs