All My Loving - Melody - Guitar Tabs

(/) Slide Up  (\) Slide Down  (h) Hammer On  (p) Pull Off  (b) Bend (r) Release (v) Vibrato (x) Muted

Tabs for Song : 
BPM : 200

Song lyrics here 
E|--------------------0--2--3--3--2--0-----0--0--0-----------------
B|--1--0-----0--1--3--------------------0-----------3--1-----------
G|--------2-----------------------------------------------2--0--2--
D|-----------------------------------------------------------------
A|-----------------------------------------------------------------
E|--------------------------------------------------------------

All My Loving       I will send to you -0h-0h       All my loving         Darling I'll be true 
E|--3--2--0-----------------------------------------3--2--0-----------------------------
B|-----------0--------0-----------0--3--0--------------------0-----------0--------------
G|-----------------------2--0--2--------------------------------------------2--2--0--0--
D|--------------------------------------------------------------------------------------
A|--------------------------------------------------------------------------------------
E|--------------------------------------------------------------------------------------


"Eb+" 
E|--0--
B|--0--
G|--0--
D|--1--
A|-----
E|-----

Use manual mode to free up cursor. Paste any tab in acousterr tab maker and we'll play it !!!

About All My Loving/Koibito : "All My Loving" is the eighth single by Japanese artist Masaharu Fuk It was released in 1993. The genre is j-pop. The track was release in 1993. All My Loving/Koibito has a significant contribution from artist(s) Masaharu Fukuyama.

About Masaharu Fukuyama - Masaharu Fukuyama debuted in 1990 with the single "Tsuioku no Ame no Naka". He debuted debuted in His 1992 breakout single "Good night" gained a wide audience because of its tie-in with TV drama Ai wo Douda . In 1993, Fukuyama made his first appearance in KĊhaku Uta Gassen . His first single after two years hiatus, "Heart/You", landed at number 3 on Oricon chart and sold 569,000 copies in total . He began his Daikanshasai (Thanksgiving) series of concerts to show his appreciation . Masaharu Fukuyama's most popular songs include - Tsuioku no Ame no Naka. Masaharu Fukuyama's music is influenced by genre(s) - pop rock.

tabs and chords, guitar tabs, music transcription, music technology, deep learning, music information retrieval, transcribe into tabs & chords, chordify, music renditions, songsterr, reverbnation, tabulature, bollywood chords, ultimate guitar, yousician, guitar lessons, acoustic guitar, electric guitar, guitar tuner, 911 tabs