Bass Tabs for The Beatles - All My Loving

The Beatles - All My Loving

Verse
G|--------------------------------------------------------------------------------------------------
D|--4--2--1--------------------------------------------------2--4--4-----4--------------------------
A|-----------4--2--0--------------2-----4--4-----4--------4-----------4-----5--5--5--5--2--2--2--2--
E|--------------------4--2--0--4-----4--------4-----5--5--------------------------------------------

G|-----------------------------------------------------------------------------------------
D|--4--2--1--------------------------------------------------2--------4-----2--------------
A|-----------4--2--0--------------2-----4--4-----4--------4-----2--2-----2-----4--2--------
E|--------------------4--2--0--4-----4--------4-----5--5-----------------------------4--0--

Chorus
G|-----------------------------------------------------------------------------------------
D|--------------------------------------------------------------------------2--------------
A|--4--4--------3--3-----3--7--7--------7--7-----7--4--4--------3--3-----3-----4--2--------
E|--------4--4--------4-----------7--7--------7-----------4--4--------4--------------4--0--

Guitar Solo
G|--------------2--------------------------------------------------------------------------
D|--------2--4-----4--2-----2-----------------------4--2--1-----------------2--------------
A|-----4-----------------4-----4--2-----------2--4-----------4--2--0-----------4--2--------
E|--5--------------------------------4--0--4--------------------------4--2-----------4--0--

last Chorus
G|--------------------------------------------------------------------------------------------------
D|--------------------------------------------------------------------------------------------------
A|--4--4--------3--3-----3--7--7--------7--7-----7--4--4--------3--3-----3--7--7--------7--7--------
E|--------4--4--------4-----------7--7--------7-----------4--4--------4-----------7--7--------7--7--

G|--------------------------------------------------------------------------------------------
D|--------------------------------------------------------------------------------------------
A|--4--4--------4--4--------7--7--------7--7--------4--4--------4--4--------7--7--------------
E|--------4--4--------4--4--------7--7--------7--7--------4--4--------4--4--------7--7-----0--
tabs and chords, guitar tabs, music transcription, music technology, deep learning, music information retrieval, transcribe into tabs & chords, chordify, music renditions, songsterr, reverbnation, tabulature, bollywood chords, ultimate guitar, yousician, guitar lessons, acoustic guitar, electric guitar, guitar tuner, 911 tabs