Guitar Tabs for Teri Meri Kahani - Arijit Singh Tabs

Tabs for Song : teri meri kahani

mujhme safar tu karti rahe
E|--------------2-----2--1--1--2--------
B|--------4--4--------------------4-----
G|--3--3--------------------------------
D|--------------------------------------
A|--------------------------------------
E|--------------------------------------

her ek saans mein guzarti rahe
E|--------------2-----2--1--1--2--------
B|--------4--4--------------------4-----
G|--3--3--------------------------------
D|--------------------------------------
A|--------------------------------------
E|--------------------------------------

shaamo subh tu mera 
E|--2--2-----------1-----1--2-----
B|--------2--4--------------------
G|--------------------------------
D|--------------------------------
A|--------------------------------
E|--------------------------------

tere bina kya mera 
E|--2--2-----------1-----1--2-----
B|--------2--4--------------------
G|--------------------------------
D|--------------------------------
A|--------------------------------
E|--------------------------------

do jismo jaan ek hai
E|--2--1--------1-----1--2-----
B|--------2--4-----------------
G|-----------------------------
D|-----------------------------
A|-----------------------------
E|-----------------------------

na hona kabhi tu juda
E|-----4--4--1--1-----1--------
B|--4--------------4-----2-----
G|-----------------------------
D|-----------------------------
A|-----------------------------
E|-----------------------------

teri meri kahaani 
E|--1--1--1--2--1-----1--------
B|-----------------4-----4-----
G|-----------------------------
D|-----------------------------
A|-----------------------------
E|-----------------------------

hai barisho ka paani
E|--------------------------
B|--------2--2--4--2--0-----
G|--3--3--------------------
D|--------------------------
A|--------------------------
E|--------------------------

banke jo ishq barse
E|--1--1--1--2--1-----1--------
B|-----------------4-----4-----
G|-----------------------------
D|-----------------------------
A|-----------------------------
E|-----------------------------

teri meri kahani
E|--------------------------
B|--------2--2--4--2--0-----
G|--3--3--------------------
D|--------------------------
A|--------------------------
E|--------------------------
tabs and chords, guitar tabs, music contests, music covers, songsterr, reverbnation, renditions, tabulature, bollywood chords, ultimate guitar, yousician, guitar lessons, torrins, fender, gibson, acoustic guitar, electric guitar, youtube covers, gootar, guitar tuner, A-Z tabs, 911 tabs