Guitar Tabs for Tere bin nahi laage jiyaa

Tabs for Song : Tere bin nahi laage jiyaa

Ye raatein ab nahi dhadakti
E|--------------------------------
B|--------------------------0--0--
G|--------------3--3--3--1--------
D|--4--4--4-----------------------
A|--------------------------------
E|--------------------------------

Din bhi saans nahi lete
E|-----------------------------
B|--0--0-----------------------
G|-----------3--3-----3--1--1--
D|-----------------4-----------
A|-----------------------------
E|-----------------------------

Ab toh aa jaao mere soneya
E|--------------------------------------------------
B|--------------------0--0--0--2--0--2--0-----------
G|-----------3--3--1-----------------------3--1-----
D|--4--4-----------------------------------------4--
A|--------------------------------------------------
E|--------------------------------------------------

Baatein reh gayi adhoori
E|--------------------------------
B|--------------------------0--0--
G|--------------3--3--3--1--------
D|--4--4--4-----------------------
A|--------------------------------
E|--------------------------------

Mere labon pe zaroori
E|-----------------------------
B|--0--0-----------------------
G|-----------3--3-----3--1--1--
D|-----------------4-----------
A|-----------------------------
E|-----------------------------

Aake sun jaao mere soneya
E|-----------------------------------------------------
B|--------------------0--0--0--2--0--2--0--------------
G|--------3-----3--1-----------------------3--1--------
D|--4--4-----------------------------------------4-----
A|-----------------------------------------------------
E|-----------------------------------------------------

Tere bin.. nahi laage jiyaa
E|-----------------------------------
B|--------------2--2--0--0-----------
G|--------------------------3--1-----
D|--1--3--4--------------------------
A|-----------------------------------
E|-----------------------------------

Tere bin.. ab to aaja piyaa
E|-----------------------------------
B|-----------2-----2--0--0-----------
G|--------------------------3--1-----
D|--1--3--4--------------------------
A|-----------------------------------
E|-----------------------------------

Tere bin.. nahi laage jiyaa..
E|-----------------------------------
B|--------------2--2--0--0-----------
G|--------------------------3--1-----
D|--1--3--4--------------------------
A|-----------------------------------
E|-----------------------------------

Pehle jaise mausam bhi aate nahi hai
E|--------------------------------------------
B|--2--2--------2-----------------2--2--2-----
G|--------3--3-----3--------1--3--------------
D|--------------------4--4--------------------
A|--------------------------------------------
E|--------------------------------------------

Baarishon mein pehle jaisi baatein nahi hai
E|-----------------------2--1--1--------------
B|--4--4--4--0--4--4--4-----------4--2--2-----
G|--------------------------------------------
D|--------------------------------------------
A|--------------------------------------------
E|--------------------------------------------

Pehle jaise mausam bhi aate nahi hai
E|--------------------------------------------
B|--2--2--------2-----------------2--2--2-----
G|--------3--3-----3--------1--3--------------
D|--------------------4--4--------------------
A|--------------------------------------------
E|--------------------------------------------

Baarishon mein pehle jaisi baatein nahi hai
E|-----------------------2--1-----1--------------
B|--4--4--4--0--4--4--4--------------4--2--2-----
G|-----------------------------------------------
D|-----------------------------------------------
A|-----------------------------------------------
E|-----------------------------------------------

Sookhe sookhe alfaaz, 
E|--------------------------------
B|--------------------------0--0--
G|--------------3--3--3--1--------
D|--4--4--4-----------------------
A|--------------------------------
E|--------------------------------

khali khali mere haathon ki 
E|-----------------------------
B|--0--0-----------------------
G|-----------3--3-----3--1--1--
D|-----------------4-----------
A|-----------------------------
E|-----------------------------

laqeerein bulaave soneya..
E|-----------------------------------------------------
B|--------------------0--0--0--2--0--2--0--------------
G|-----------3--3--1-----------------------3--1--------
D|--4--4-----------------------------------------4-----
A|-----------------------------------------------------
E|-----------------------------------------------------

Tere bin.. nahi laage jiyaa
E|-----------------------------------
B|--------------2--2--0--0-----------
G|--------------------------3--1-----
D|--1--3--4--------------------------
A|-----------------------------------
E|-----------------------------------

Tere bin.. ab to aaja piyaa
E|-----------------------------------
B|-----------2-----2--0--0-----------
G|--------------------------3--1-----
D|--1--3--4--------------------------
A|-----------------------------------
E|-----------------------------------

tabs and chords, guitar tabs, music contests, music covers, songsterr, reverbnation, renditions, tabulature, bollywood chords, ultimate guitar, yousician, guitar lessons, torrins, fender, gibson, acoustic guitar, electric guitar, youtube covers, gootar, guitar tuner, A-Z tabs, 911 tabs