Guitar Tabs for Bin Tere Sanam

ye jankar balam ji
E|---5/7--7--7--7---7h-8p7--7---7h-8p7---7\3------5/7--7--7--7---8/10-10-10/12-9--
B|--------------------------------------------------------------------------------
G|--------------------------------------------------------------------------------
D|--------------------------------------------------------------------------------
A|--------------------------------------------------------------------------------
E|--------------------------------------------------------------------------------

sehni padegi sabki...
E|-----------------------------------------------------------------------------
B|------8/10--8\7--7---8/10-8---7h-8p7---7\3------5/7--7--7---7/12-12-12\5--5--
G|-----------------------------------------------------------------------------
D|-----------------------------------------------------------------------------
A|-----------------------------------------------------------------------------
E|-----------------------------------------------------------------------------

sab sahenge hum
E|-----------7--------------------7--------------------7-----------------------------
B|--------------8--7--7--------------8--7--7--------------10\8---8/10-10-10\7--7-----
G|------7/9--------------9--9--9--------------9--9--9--------------------------------
D|-----------------------------------------------------------------------------------
A|-----------------------------------------------------------------------------------
E|-----------------------------------------------------------------------------------

aana he pada sajna
E|--7--7--7---7h-8p7--7--7-----------------------------------------------
B|--------------------------10-8---8/10-10\7-----7--8--7-----7-----------
G|--------------------------------------------------------7-----9--9-----
D|-----------------------------------------------------------------------
A|-----------------------------------------------------------------------
E|-----------------------------------------------------------------------

arre anna he pada
E|--7--7--7---8/10-8--7--7--------------------------------------------------
B|--------------------------10-8--10-10\7-----7--7--7--8--7-----7-----------
G|-----------------------------------------------------------7-----9--9-----
D|--------------------------------------------------------------------------
A|--------------------------------------------------------------------------
E|--------------------------------------------------------------------------
tabs and chords, guitar tabs, music transcription, music technology, deep learning, music information retrieval, transcribe into tabs & chords, chordify, music renditions, songsterr, reverbnation, tabulature, bollywood chords, ultimate guitar, yousician, guitar lessons, acoustic guitar, electric guitar, guitar tuner, 911 tabs