Guitar Tabs for Tere bin (wazir)

Tabs for Song : tere bin(Wazir)


tere bin, tere bin
E|--------------------------
B|--1--0--------------------
G|--------0-----------0-----
D|--------------3--2--------
A|--------------------------
E|--------------------------
tere bin, tere bin
E|-----------------------------
B|--1--0-----------------------
G|--------0-----------0--------
D|--------------3--2-----3-----
A|-----------------------------
E|-----------------------------
tere bina marna nahi
E|--------------------------------
B|--------1--0-----------1--0-----
G|-----2--------------2-----------
D|--3--------------3--------------
A|--------------------------------
E|--------------------------------
jeena nahi tere bin
E|-----------------------------
B|-----------------------------
G|--0--2--0--------0-----------
D|-----------2--0-----3--2-----
A|-----------------------------
E|-----------------------------

jeena nahi tere bin
E|-----------------------------
B|-----------------------------
G|--0--2--0--------0-----------
D|-----------2--0-----3--2-----
A|-----------------------------
E|-----------------------------
baware piya laage na jiya
E|--------------------------------------
B|--------------------------------------
G|--------0-----------------0-----------
D|-----------3--2--------------3--2-----
A|--3--3--------------3--3--------------
E|--------------------------------------
dekho mera mann jalta diya
E|--------------------------------------
B|--------------------------------------
G|--------0-----------------0-----------
D|-----------3--2--------------3--2-----
A|--3--3--------------3--3--------------
E|--------------------------------------
jalta diya bujhe na piya
E|--------------------------------------
B|--------1-----------0--0-----0--1-----
G|-----------3--2-----------2-----------
D|--2--3--------------------------------
A|--------------------------------------
E|--------------------------------------
bujhe na piya jalta diya
E|--------------------------------------
B|--------1-----------0--0-----0--1-----
G|-----------3--2-----------2-----------
D|--2--3--------------------------------
A|--------------------------------------
E|--------------------------------------
hmm hmm...
E|-----------------------
B|--1--0-----------------
G|--------0--------0-----
D|-----------3--2--------
A|-----------------------
E|-----------------------
hmm.. hmm...
E|-----------------------
B|--1--0-----------------
G|--------0--------0-----
D|-----------3--2--------
A|-----------------------
E|-----------------------

tabs and chords, guitar tabs, music contests, music covers, songsterr, reverbnation, renditions, tabulature, bollywood chords, ultimate guitar, yousician, guitar lessons, torrins, fender, gibson, acoustic guitar, electric guitar, youtube covers, gootar, guitar tuner, A-Z tabs, 911 tabs