Guitar Tabs for Sunny Ade In The 60s

(/) Slide Up  (\) Slide Down  (h) Hammer On  (p) Pull Off  (b) Bend (r) Release (v) Vibrato (x) Muted

Tabs & Chords
BPM : 117.0
Check Track 2 for Chord Positions 

                                        C                                                     
E|-----0--------------0--------------0--------------------------------15-0--------------------
B|--8-----------8--8--------------------------8-----------8--8--------------8-----------------
G|--------7-----------------7-----10----------------7--10----------10-------------------------
D|--------------------------------------10-10-------------------------------------0--0-----11-
A|--------------------------------------------------------------------------------------------
E|--------------------------------------------------------------------------------------------

          A        C                                                                          F  
E|--------------------0--------------------0--------0--------------------0--------------------0--
B|-----9--9--8--------------------------8--------------8--8--8--------0--------8-----8-----------
G|--10-------------7-----7--------7-----------7-----------------7-----------10----------7--------
D|--------------------------10-------------------------------------------------------------------
A|-----------------------------------------------------------------------------------------------
E|-----------------------------------------------------------------------------------------------

                               G     C                                                        
E|--------------------------------------------0--------------------0-----0--------------------
B|--------------------------------------8-----------------8-----------------------------------
G|--10-10----------------------10-10-10----------10-10-7--------7-----------10----------------
D|--------7-----8--7-----8--------------------------------------------------------10-10----10-
A|--------------------------------------------------------------------------------------------
E|--------------------------------------------------------------------------------------------

                         G                       
E|--0--------------------------------7--------7--
B|-----0--------0-----------------------0--------
G|-----------------------7-----10----------------
D|--------8--8-----11-------------10-------------
A|-----------------------------------------------
E|-----------------------------------------------

Guitar Tabs for Sunny Ade In The 60s






                                        C                                                     
E|--------------------------------------0-----------------------------------------------------
B|--------------------------------------1-----------------------------------------------------
G|--------------------------------------0-----------------------------------------------------
D|--------------------------------------2-----------------------------------------------------
A|--------------------------------------3-----------------------------------------------------
E|--------------------------------------------------------------------------------------------

          A        C                                                                          F  
E|--------0--------0--------------------------------------------------------------------------1--
B|--------2--------1--------------------------------------------------------------------------1--
G|--------2--------0--------------------------------------------------------------------------2--
D|--------2--------2--------------------------------------------------------------------------3--
A|--------0--------3--------------------------------------------------------------------------3--
E|--------------------------------------------------------------------------------------------1--

                               G     C                                                        
E|-----------------------------3-----0--------------------------------------------------------
B|-----------------------------3-----1--------------------------------------------------------
G|-----------------------------4-----0--------------------------------------------------------
D|-----------------------------5-----2--------------------------------------------------------
A|-----------------------------5-----3--------------------------------------------------------
E|-----------------------------3--------------------------------------------------------------

                         G                       
E|-----------------------3-----------------------
B|-----------------------3-----------------------
G|-----------------------4-----------------------
D|-----------------------5-----------------------
A|-----------------------5-----------------------
E|-----------------------3-----------------------

tabs and chords, guitar tabs, music transcription, music technology, deep learning, music information retrieval, transcribe into tabs & chords, chordify, music renditions, songsterr, reverbnation, tabulature, bollywood chords, ultimate guitar, yousician, guitar lessons, acoustic guitar, electric guitar, guitar tuner, 911 tabs