Guitar Tabs for Sunny Ade Dance Medley

(/) Slide Up  (\) Slide Down  (h) Hammer On  (p) Pull Off  (b) Bend (r) Release (v) Vibrato (x) Muted

Tabs & Chords
BPM : 144.0
Check Track 2 for Chord Positions 

                                                                                     F        
E|-----------12-------------20-21----21-------------------------------------------------------
B|--------------------------------------------------------------------------------------------
G|--------------------------------------------------------------------------------------------
D|-----------------------------------------13-------------------------------1--------1--------
A|--------------------------------------------------------------------------------------------
E|-----------------------------------------------------------------12-12-------------------12-

                                           G                 Gm                      G        
E|--------------------------------------------------------------------------------------------
B|-----------11----------------------------------------------------------------14-------------
G|--------------------------------------------------------------------------11----------------
D|-----1--1-----1--1--1--------1-----------11-13-13-------------------------------------------
A|--------------------------------------------------------------------------------------------
E|-----------------------------------------------------------4-----4-----------------14----4--

                   Bm       G                             
E|--------------------------------------------------------
B|--------------------------------------------------------
G|-----------------------------------------1-----------1--
D|--------------------------------------------------------
A|--------------------------------------------------------
E|--4-----4--------4--4-----4--4-----4-----------4--4-----


Guitar Tabs for Sunny Ade Dance Medley






                                                                                     F        
E|-----------------------------------------------------------------------------------1--------
B|-----------------------------------------------------------------------------------1--------
G|-----------------------------------------------------------------------------------2--------
D|-----------------------------------------------------------------------------------3--------
A|-----------------------------------------------------------------------------------3--------
E|-----------------------------------------------------------------------------------1--------

                                           G                 Gm                      G        
E|-----------------------------------------3-----------------3-----------------------3--------
B|-----------------------------------------3-----------------3-----------------------3--------
G|-----------------------------------------4-----------------3-----------------------4--------
D|-----------------------------------------5-----------------5-----------------------5--------
A|-----------------------------------------5-----------------5-----------------------5--------
E|-----------------------------------------3-----------------3-----------------------3--------

                   Bm       G                             
E|-----------------2--------3-----------------------------
B|-----------------3--------3-----------------------------
G|-----------------4--------4-----------------------------
D|-----------------4--------5-----------------------------
A|-----------------2--------5-----------------------------
E|--------------------------3-----------------------------

tabs and chords, guitar tabs, music transcription, music technology, deep learning, music information retrieval, transcribe into tabs & chords, chordify, music renditions, songsterr, reverbnation, tabulature, bollywood chords, ultimate guitar, yousician, guitar lessons, acoustic guitar, electric guitar, guitar tuner, 911 tabs