Guitar Tabs for Ija Pari By Sunny Ade

(/) Slide Up  (\) Slide Down  (h) Hammer On  (p) Pull Off  (b) Bend (r) Release (v) Vibrato (x) Muted

Tabs & Chords
BPM : 117.0
Check Track 2 for Chord Positions 

             A#                                                                            Fm 
E|--------------------------------5-----------------------------------------------11----11----
B|-----------------------------------------------------------6--------------------------------
G|-----0--0--------------------------------------------------------------------------------8--
D|--------------------------------------------------------7-----------------------------------
A|--8--------8-----8-----8-----8-----------8--8--------8--------------8-----6-----------------
E|-----------------------------------0--0-----------8-----------6--------------8--------------

             A#                                                                F     A#       
E|-----------10----5-----11-11-10----10-11----8--10----10-10----10----6--6-----5-----11----10-
B|--------------------------------------------------------------------------------------------
G|--8-----------------------------------------------------------------------------------------
D|--------------------------------------------------------------------------------------------
A|-----9--------------------------------------------------------------------------------------
E|--------------------------------------------------------------------------------------------

                                     F           A#                               F           
E|--10----------------------10-10-11-5-----11----10-10----11----------------------5-----11-10-
B|--------------------------------------------------------------------------------------------
G|--------------------------------------------------------------------------------------------
D|--------------------------------------------------------------------------------------------
A|--------6--8--8--8--8-----------------------------------------8-----------------------------
E|-----1-----------------6-----------------------------------6--------7-----7--8--------------

       
E|-----
B|-----
G|-----
D|-----
A|-----
E|--7--

Guitar Tabs for Ija Pari By Sunny Ade






             A#                                                                            Fm 
E|-----------1-----------------------------------------------------------------------------1--
B|-----------3-----------------------------------------------------------------------------1--
G|-----------3-----------------------------------------------------------------------------1--
D|-----------3-----------------------------------------------------------------------------3--
A|-----------1-----------------------------------------------------------------------------3--
E|-----------------------------------------------------------------------------------------1--

             A#                                                                F     A#       
E|-----------1-----------------------------------------------------------------1-----1--------
B|-----------3-----------------------------------------------------------------1-----3--------
G|-----------3-----------------------------------------------------------------2-----3--------
D|-----------3-----------------------------------------------------------------3-----3--------
A|-----------1-----------------------------------------------------------------3-----1--------
E|-----------------------------------------------------------------------------1--------------

                                     F           A#                               F           
E|-----------------------------------1-----------1--------------------------------1-----------
B|-----------------------------------1-----------3--------------------------------1-----------
G|-----------------------------------2-----------3--------------------------------2-----------
D|-----------------------------------3-----------3--------------------------------3-----------
A|-----------------------------------3-----------1--------------------------------3-----------
E|-----------------------------------1--------------------------------------------1-----------

       
E|-----
B|-----
G|-----
D|-----
A|-----
E|-----

tabs and chords, guitar tabs, music transcription, music technology, deep learning, music information retrieval, transcribe into tabs & chords, chordify, music renditions, songsterr, reverbnation, tabulature, bollywood chords, ultimate guitar, yousician, guitar lessons, acoustic guitar, electric guitar, guitar tuner, 911 tabs