Guitar Tabs for Treat You Better - Shawn Mendes

(/) Slide Up  (\) Slide Down  (h) Hammer On  (p) Pull Off  (b) Bend (r) Release (v) Vibrato (x) Muted

Tabs & Chords

Check Track 2 for Chord Positions 

          F                 G#          C#                                                    G# 
E|-----------------------------------------------------------------------------------------------
B|--2-----2-----2-----1-----1-----1-----------------------------------1-----2-----2-----2-----1--
G|--------------------------------------3-----3-----3-----3-----3--------------------------------
D|-----------------------------------------------------------------------------------------------
A|-----------------------------------------------------------------------------------------------
E|-----------------------------------------------------------------------------------------------

                   C#                                  A#m         G#             F#       A#m
E|-----------------------------------------------------1--------------------------------1--1--
B|-----1-----1-----------------------------------1-----------2-----4-----2--2-----2--4--------
G|-----------------3-----3-----3-----3-----3--------------------------------------------------
D|--------------------------------------------------------------------------------------------
A|--------------------------------------------------------------------------------------------
E|--------------------------------------------------------------------------------------------

             G#             F#       A#m                  G#                         F#       
E|--------------------------------------1--1--1--4--------------------1-----------------------
B|-----2-----4-----2--2-----2--2--2--4-----------------2--2--4--4--4-----4-----2--2--2--2--2--
G|--------------------------------------------------------------------------------------------
D|--------------------------------------------------------------------------------------------
A|--------------------------------------------------------------------------------------------
E|--------------------------------------------------------------------------------------------

                               A#m            G#                      F#                      
E|-----------1--1--------------1--1--1--4-----------------1-----------------------------1--1--
B|--2--2--4-----------2--2--4--------------2--2--4-----4-----4--2--2--2--2--2--2--2--4--------
G|--------------------------------------------------------------------------------------------
D|--------------------------------------------------------------------------------------------
A|--------------------------------------------------------------------------------------------
E|--------------------------------------------------------------------------------------------

                   A#m         G#          F#                C#                   A#m   G#       
E|-----------------------1--------------------------------------------------------1--------------
B|-----2--2--2--2--2-----------1-----2-----2-----4-----2-----2--2--2--2--2--2-----------1-----2--
G|-----------------------------------------------------------------------------------------------
D|-----------------------------------------------------------------------------------------------
A|-----------------------------------------------------------------------------------------------
E|-----------------------------------------------------------------------------------------------

       F#                C#                   A#m         G#                         F#          
E|-----------------------------------------1-----------------------1-----------------------------
B|-----2-----4-----2-----2--2--2--2--2--4-----4-----2--2--2--4--------4-----2--2--2--2--2-----2--
G|-----------------------------------------------------------------------------------------------
D|-----------------------------------------------------------------------------------------------
A|-----------------------------------------------------------------------------------------------
E|-----------------------------------------------------------------------------------------------

             C#                      A#m   G#          C#                   A#m         G#       
E|-----1-----1-----------------------1-----------------4-----2--1--2--1-----1--------------------
B|-----------------2--2--2--2--2-----------1-----2--------------------------------2-----4-----2--
G|-----------------------------------------------------------------------------------------------
D|-----------------------------------------------------------------------------------------------
A|-----------------------------------------------------------------------------------------------
E|-----------------------------------------------------------------------------------------------

          F#    G#       A#m   G#             F#    A#m               G#                      
E|-----------------1--------------------------1-----1--1--1--4--------------------1-----------
B|--2-----2--2--4--------2-----4-----2--2--------------------------2--2--4--4--4-----4-----2--
G|--------------------------------------------------------------------------------------------
D|--------------------------------------------------------------------------------------------
A|--------------------------------------------------------------------------------------------
E|--------------------------------------------------------------------------------------------

       F#                                     A#m               G#                         F# 
E|--------------------------1--1--------------1--1--1--4--------------------1-----------------
B|-----2--2--2--2--2-----4-----------2--2--4-----------------2--4-----2--4-----4-----2-----2--
G|--------------------------------------------------------------------------------------------
D|--------------------------------------------------------------------------------------------
A|--------------------------------------------------------------------------------------------
E|--------------------------------------------------------------------------------------------

                                           A#m         G#          F#                C#       
E|-----------------1--1--------------------------1--------------------------------------------
B|--2--2--2--2--4-----------2--2--2--2--2--2-----------1-----2-----2-----4-----2-----2--2--2--
G|--------------------------------------------------------------------------------------------
D|--------------------------------------------------------------------------------------------
A|--------------------------------------------------------------------------------------------
E|--------------------------------------------------------------------------------------------

                A#m   G#          F#                C#                   A#m            G#    
E|--------------1--------------------------------------------------------1--------------------
B|--2--2--2-----------1-----2-----2-----4-----2-----2--2--2--2--2--4--------4-----2--2--2--4--
G|--------------------------------------------------------------------------------------------
D|--------------------------------------------------------------------------------------------
A|--------------------------------------------------------------------------------------------
E|--------------------------------------------------------------------------------------------

                         F#                   C#                      A#m   G#          C#       
E|-----1--------------------------------1-----1-----------------------1-----------------4-----2--
B|--------4-----2--2--2--2--2-----2-----------------2--2--2--2--2-----------1-----2--------------
G|-----------------------------------------------------------------------------------------------
D|-----------------------------------------------------------------------------------------------
A|-----------------------------------------------------------------------------------------------
E|-----------------------------------------------------------------------------------------------

             
E|--1--2--1--
B|-----------
G|-----------
D|-----------
A|-----------
E|-----------

Guitar Tabs for Treat You Better - Shawn Mendes






          F                 G#          C#                                                    G# 
E|--------1-----------------4-----------4-----------------------------------------------------4--
B|--------1-----------------4-----------6-----------------------------------------------------4--
G|--------2-----------------5-----------6-----------------------------------------------------5--
D|--------3-----------------6-----------6-----------------------------------------------------6--
A|--------3-----------------6-----------4-----------------------------------------------------6--
E|--------1-----------------4-----------------------------------------------------------------4--

                   C#                                  A#m         G#             F#       A#m
E|-----------------4-----------------------------------1-----------4--------------2--------1--
B|-----------------6-----------------------------------2-----------4--------------2--------2--
G|-----------------6-----------------------------------3-----------5--------------3--------3--
D|-----------------6-----------------------------------3-----------6--------------4--------3--
A|-----------------4-----------------------------------1-----------6--------------4--------1--
E|-----------------------------------------------------------------4--------------2-----------

             G#             F#       A#m                  G#                         F#       
E|-----------4--------------2--------1--------------------4--------------------------2--------
B|-----------4--------------2--------2--------------------4--------------------------2--------
G|-----------5--------------3--------3--------------------5--------------------------3--------
D|-----------6--------------4--------3--------------------6--------------------------4--------
A|-----------6--------------4--------1--------------------6--------------------------4--------
E|-----------4--------------2-----------------------------4--------------------------2--------

                               A#m            G#                      F#                      
E|-----------------------------1--------------4-----------------------2-----------------------
B|-----------------------------2--------------4-----------------------2-----------------------
G|-----------------------------3--------------5-----------------------3-----------------------
D|-----------------------------3--------------6-----------------------4-----------------------
A|-----------------------------1--------------6-----------------------4-----------------------
E|--------------------------------------------4-----------------------2-----------------------

                   A#m         G#          F#                C#                   A#m   G#       
E|-----------------1-----------4-----------2-----------------4--------------------1-----4--------
B|-----------------2-----------4-----------2-----------------6--------------------2-----4--------
G|-----------------3-----------5-----------3-----------------6--------------------3-----5--------
D|-----------------3-----------6-----------4-----------------6--------------------3-----6--------
A|-----------------1-----------6-----------4-----------------4--------------------1-----6--------
E|-----------------------------4-----------2--------------------------------------------4--------

       F#                C#                   A#m         G#                         F#          
E|-----2-----------------4--------------------1-----------4--------------------------2-----------
B|-----2-----------------6--------------------2-----------4--------------------------2-----------
G|-----3-----------------6--------------------3-----------5--------------------------3-----------
D|-----4-----------------6--------------------3-----------6--------------------------4-----------
A|-----4-----------------4--------------------1-----------6--------------------------4-----------
E|-----2--------------------------------------------------4--------------------------2-----------

             C#                      A#m   G#          C#                   A#m         G#       
E|-----------4-----------------------1-----4-----------4--------------------1-----------4--------
B|-----------6-----------------------2-----4-----------6--------------------2-----------4--------
G|-----------6-----------------------3-----5-----------6--------------------3-----------5--------
D|-----------6-----------------------3-----6-----------6--------------------3-----------6--------
A|-----------4-----------------------1-----6-----------4--------------------1-----------6--------
E|-----------------------------------------4--------------------------------------------4--------

          F#    G#       A#m   G#             F#    A#m               G#                      
E|--------2-----4--------1-----4--------------2-----1-----------------4-----------------------
B|--------2-----4--------2-----4--------------2-----2-----------------4-----------------------
G|--------3-----5--------3-----5--------------3-----3-----------------5-----------------------
D|--------4-----6--------3-----6--------------4-----3-----------------6-----------------------
A|--------4-----6--------1-----6--------------4-----1-----------------6-----------------------
E|--------2-----4--------------4--------------2-----------------------4-----------------------

       F#                                     A#m               G#                         F# 
E|-----2--------------------------------------1-----------------4--------------------------2--
B|-----2--------------------------------------2-----------------4--------------------------2--
G|-----3--------------------------------------3-----------------5--------------------------3--
D|-----4--------------------------------------3-----------------6--------------------------4--
A|-----4--------------------------------------1-----------------6--------------------------4--
E|-----2--------------------------------------------------------4--------------------------2--

                                           A#m         G#          F#                C#       
E|-----------------------------------------1-----------4-----------2-----------------4--------
B|-----------------------------------------2-----------4-----------2-----------------6--------
G|-----------------------------------------3-----------5-----------3-----------------6--------
D|-----------------------------------------3-----------6-----------4-----------------6--------
A|-----------------------------------------1-----------6-----------4-----------------4--------
E|-----------------------------------------------------4-----------2--------------------------

                A#m   G#          F#                C#                   A#m            G#    
E|--------------1-----4-----------2-----------------4--------------------1--------------4-----
B|--------------2-----4-----------2-----------------6--------------------2--------------4-----
G|--------------3-----5-----------3-----------------6--------------------3--------------5-----
D|--------------3-----6-----------4-----------------6--------------------3--------------6-----
A|--------------1-----6-----------4-----------------4--------------------1--------------6-----
E|--------------------4-----------2-----------------------------------------------------4-----

                         F#                   C#                      A#m   G#          C#       
E|-----------------------2--------------------4-----------------------1-----4-----------4--------
B|-----------------------2--------------------6-----------------------2-----4-----------6--------
G|-----------------------3--------------------6-----------------------3-----5-----------6--------
D|-----------------------4--------------------6-----------------------3-----6-----------6--------
A|-----------------------4--------------------4-----------------------1-----6-----------4--------
E|-----------------------2--------------------------------------------------4--------------------

             
E|-----------
B|-----------
G|-----------
D|-----------
A|-----------
E|-----------

tabs and chords, guitar tabs, music transcription, music technology, deep learning, music information retrieval, transcribe into tabs & chords, chordify, music renditions, songsterr, reverbnation, tabulature, bollywood chords, ultimate guitar, yousician, guitar lessons, acoustic guitar, electric guitar, guitar tuner, 911 tabs