Guitar Tabs for Southbound

by THE ALLMAN Brothers

INTRO:= Lead   G -Bb -C
E|----------13b/15-15b-11--11-11--------------11--11-11--------11--------11-13/15-15b--11--15b-(15b)-11--11-8-11-11-8
B|-11-13-13--------------13-----13\--/11-13-13--13-----13-11-13--11-13-13----------------13--------------------------
G|-------------------------------------------------------------------------------------------------------------------
D|-------------------------------------------------------------------------------------------------------------------
A|-------------------------------------------------------------------------------------------------------------------
E|-------------------------------------------------------------------------------------------------------------------


E|---------11---------------------------------------------------------8-----------------------------------
B|-------11--13---------------------------------------------8-11p8-11--11/13--8h11p8---8------------------
g|-/12-12---------12p10-8b------------------------8-10p8-10--------------------------10--10-10-10p8--8----
D|------------------------10-8---------------8-10--------------------------------------------------10--10v
A|----------------------------10-10-8-10-10---------------------------------------------------------------
E|--------------------------------------------------------------------------------------------------------

VERSE: C9 -G9 -F9 -C9 -G9 -F9  

BRIDGE: 
E|------------------------------------------------------------------------------------------------
B|------------------------------------------------------------------------------------------------
G|-----------------------------------------8-10-------------------------10-11-12------------------
D|----------------8--10---------7-7-8-9-10-----------------9-9-10-11-12---------------------------
A|-----7-7-8-9-10-----------8-8----------------------10-10--------------------------------7-7-8---
E|-8-8--------------------------------------------------------------------------------8-8---------

SOLO #1-
E|----8-11b-11b---------11/13-13b-8\---13b-13-11-13-11-11----11b--------b11b-------11-13-13b-11-11h13-13b-13-11-13-13b-11
B|--11----------13p1113------------------------------------------13-13-------13-13---------------------------------------
G|-----------------------------------------------------------------------------------------------------------------------
D|-----------------------------------------------------------------------------------------------------------------------
A|-----------------------------------------------------------------------------------------------------------------------
E|-----------------------------------------------------------------------------------------------------------------------

E|---------------11-----------11b--------------------11-13-13b----13b(13)-11-------------------------------------------------
B|--13p11--11h13---11-13-13-------13-13-11-13-11h13--------------------------13-13-11-13-13-11-------------------------------
G|-------------------------12------------------------------------------------------------------12p10-8-10p8--8---------------
D|---------------------------------------------------------------------------------------------------------10-------8h10-10--
A|-------------------------------------------------------------------------------------------------------------10/12---------
E|---------------------------------------------------------------------------------------------------------------------------

E|------------------------8------8-11b-11---8--8-8--8-8------8h11p8--11---8h11p8---11--8h11p8---11---8h11p8---11---8h11p8
B|-------------------8-11---8-11-------------11---11----8h11-------11--11--------11--11-------11--11--------11--11-------
G|-----8-8h10-8-8-10-----------------------------------------------------------------------------------------------------
D|--10-------------------------------------------------------------------------------------------------------------------
A|-----------------------------------------------------------------------------------------------------------------------
E|-----------------------------------------------------------------------------------------------------------------------

E|----11---8h11p8---11-------8h11p8---11---8h11p8---11---8h11p8---11----8h11p8---8-11b--11-8--8-8---
B|--11--11--------11--11------------11--11--------11--11--------11--11---------11-----------11---11-
G|--------------------------------------------------------------------------------------------------
D|--------------------------------------------------------------------------------------------------
A|--------------------------------------------------------------------------------------------------
E|--------------------------------------------------------------------------------------------------

E|------------------------------------
B|--11-8-8-8--------------------------
G|----------10-10-8-8-----------------
D|-------------------10-8---------8-10
A|-----------------------10---/10-----
E|------------------------------------

BRIDGE: 
E|------------------------------------------------------------------------------------------------
B|------------------------------------------------------------------------------------------------
G|-----------------------------------------8-10-------------------------10-11-12------------------
D|----------------8--10---------7-7-8-9-10-----------------9-9-10-11-12---------------------------
A|-----7-7-8-9-10-----------8-8----------------------10-10--------------------------------7-7-8---
E|-8-8--------------------------------------------------------------------------------8-8---------
SOLO#1:
E|---
B|---
G|---
D|---
A|---
E|---

E|--
B|--
G|--
D|--
A|--
E|--

E|--
B|--
G|--
D|--
A|--
E|--

E|--
B|--
G|--
D|--
A|--
E|--

E|--
B|--
G|--
D|--
A|--
E|--

Paste any tab in acousterr's tab maker and we'll play it !!!
Now supports capo and sound effects for vibrato/pull-off/hammer/bends/mutes etc !!! Checkout help section
tabs and chords, guitar tabs, music transcription, music technology, deep learning, music information retrieval, transcribe into tabs & chords, chordify, music renditions, songsterr, reverbnation, tabulature, bollywood chords, ultimate guitar, yousician, guitar lessons, acoustic guitar, electric guitar, guitar tuner, 911 tabs