Guitar Tabs for Blue Sky

The Allman Bros
SOLO
E|----------------------------------------------------------------------------------------------------
B|----------------------------------------------------10-9--------------------------------------------
G|-11/13-13-11--11/13-13-11--9h11p9--9--9-11-11-9--9-9----11-9--11/13-13-13b-13b-11-9-9-11-9-9--9-6---
D|---------------------------------11---------------------------------------------------------11---7-7
A|----------------------------------------------------------------------------------------------------
E|----------------------------------------------------------------------------------------------------

E|----------------------------------------------------------------------------------------------------
B|---------------------12-14-12-14/17b-r-12--------------------------------------------9-9------9-10-9
G|---------9-11-9--9/13--------------------/11-9-9-11-9v---9-9-11-9---------9-9-9-9-11----11-11-------
D|-7-7-7/11--------------------------------------------------------11-9-9-11--------------------------
A|----------------------------------------------------------------------------------------------------
E|----------------------------------------------------------------------------------------------------

E|-----------------------------------------------------------------------12-10------------------------
B|------------------------------------9-10-9----------------------------------12-9-10v--9-10v--9-10v--
G|-11/13-b-9-9-11-9--11/13-11/13-9--9-------11-9--11/13-11/13--9--9-9---9-----------------------------
D|--------------------------------11----------------------------11------------------------------------
A|----------------------------------------------------------------------------------------------------
E|----------------------------------------------------------------------------------------------------

E|-------------------------------------------------------------------------------------------------
B|--9-10v-9---------10-9--10-9--9----10-9----------------------------------------------------------
G|---------11-9---9--------------11-9----11-9---11-9-11/13-11/13b-r-13b-13b-9-11/13-b---9--9-------
D|---------------------------------------------------------------------------------------11--------
A|-------------------------------------------------------------------------------------------------
E|-------------------------------------------------------------------------------------------------



E|------------------------------------14b-14r--12--------------------------------------------------------
B|-----------10-9-------------------12------------14-12v--14-12v--14-12----9-10-9--9-10-12--10-9--10-9-10
G|-11-9---9-9---11-9--9-11-9---11/13-----------------------------------11--------------------------------
D|------11-----------------------------------------------------------------------------------------------
A|-------------------------------------------------------------------------------------------------------
E|-------------------------------------------------------------------------------------------------------

E|-----------------------------------------------------------------
B|--9--9-----------------------------------12v12-12-12-14-12-12-12v
G|---11---11-9--11-9--9--9--6--------------------------------------
D|-----------------------------7--7--7--7--------------------------
A|-----------------------------------------------------------------
E|-----------------------------------------------------------------

E|-----------------16-17-16-17-16----------17-16----16-19-16----16-17-16----16-19-16---16-19-16-----
B|--12-12-12-12-17----------------17-17-17-------17----------17----------17---------17---------17---
G|--------------------------------------------------------------------------------------------------
D|--------------------------------------------------------------------------------------------------
A|--------------------------------------------------------------------------------------------------
E|--------------------------------------------------------------------------------------------------

E|16-17-16--16-19-16----16-17-16----16----16-16-----------------------------------------------------
B|--------17--------17------------17--17--------17-17-17-16-16-16-16-12-12-12-12-10-10-10-10-9------
G|--------------------------------------------------------------------------------------------11-9--
D|--------------------------------------------------------------------------------------------------
A|--------------------------------------------------------------------------------------------------
E|--------------------------------------------------------------------------------------------------

E|-12-9----------------------------------------------------------------------------12---------------
B|-----12-10-9---------------9-10-12-9-12b----12-9-12----------------12--12-14--9----14-12----------
G|-------------11-9-9-9-11-----------------------------11-9--9-----13--------------------13-11-9---9
D|---------------------------------------------------------11--11--------------------------------11-
A|--------------------------------------------------------------------------------------------------
E|--------------------------------------------------------------------------------------------------

E|------------------12-----------------------------------12--------------------------------------------
B|---12b--12-14--9-----14-12---------------12b--12-14------14-12----------------10---------------------
G|-13------------------------13-11-9--9--13----------13---------13-11-9--9----11--11b--9b--9-9-11-9----
D|----------------------------------11---------------------------------11---------------------------119
A|-----------------------------------------------------------------------------------------------------
E|-----------------------------------------------------------------------------------------------------

E|---------------16-17-16---------------------------------------------------------------------------
B|----17b--17-19----------19-17----17-19----17-19---17-19-------17--------------17---------17--17-19
G|--18--------------------------18-------18-------18------18--18---14b--14-16-18---18-16-17---------
D|--------------------------------------------------------------------------------------------------
A|--------------------------------------------------------------------------------------------------
E|--------------------------------------------------------------------------------------------------

E|---16-17-16---------------------------------
B|------------19-17----17-19-----------17-----
G|------------------18-----------18-18----14--
D|--------------------------------------------
A|--------------------------------------------
E|--------------------------------------------










tabs and chords, guitar tabs, music transcription, music technology, deep learning, music information retrieval, transcribe into tabs & chords, chordify, music renditions, songsterr, reverbnation, tabulature, bollywood chords, ultimate guitar, yousician, guitar lessons, acoustic guitar, electric guitar, guitar tuner, 911 tabs