Guitar Tabs for Melissa

THE ALLMAN BROS 
                                       Crossroads seem to come and go    
E|--16p14p12--12------------------------------------------------------------------------------------
B|--------------14p12------------------------------9h10-9-12--12/14--12v--------------------10--12--
G|-------------------13\11--9-11-9--9----------9-11---------------------------9-9h11p9--9-11--------
D|-----------------------------------------9h11---------------------------9-11----------------------
A|--------------------------------------------------------------------------------------------------
E|--------------------------------------------------------------------------------------------------

                                                                      Sweet Melissa
E|--9--10--12\14-12--14-16b-r-16--14p12-14--14/15--14-12-14--------14-16v-----12--------------------
B|---------------------------------------------------------------12--------------14p12--12----------
G|-----------------------------------------------------------------------------------------13\11-9--
D|--------------------------------------------------------------------------------------------------
A|--------------------------------------------------------------------------------------------------
E|--------------------------------------------------------------------------------------------------
   Freight trains......
E|----------------------------------------------------------------------------9-10h9--10--12/14-12--
B|---------------------------------------------------------------9h10--10--12-----------------------
G|---------------9-11-11-11/13--13\11--11-9--9-11-9v---------9h11-----------------------------------
D|----------9-11-----------------------------------------9-11---------------------------------------
A|--7--9/11-----------------------------------------------------------------------------------------
E|--------------------------------------------------------------------------------------------------

E|--14--16b-r-16--14-12-14--14/15v--15\14-12-14-------14/16v-----12---------------------------------
B|--------------------------------------------------12-------------14h12---12-----------------------
G|---------------------------------------------------------------------------13\11-9----------------
D|-----------------------------------------------------------------------------------11h9--9--------
A|-------------------------------------------------------------------------------------------11h9--7
E|--------------------------------------------------------------------------------------------------
   Again the morning comes
E|----------------------------------9h10-9--12--12/14--14p12----------------------------------
B|-----------12/14-12-10---10h12-12--------------------------10/12-12----9h10-10p9------------
G|--9h11-11------------------------------------------------------------------------11-11-9--9-
D|--------------------------------------------------------------------------------------------
A|--------------------------------------------------------------------------------------------
E|--------------------------------------------------------------------------------------------
  Crossroads will you everlet him go
E|---------------9---------------------------------9-10h9-10/12-12-14-16b-r-16-14-12-14/15-14-12-14
B|-----9h10-9h10--12---9h10-9-----------------10-12-------------------------------------------------
G|-9-11-----------------------11-9-----------9-------------------------------------------------------
D|--------------------------------------9-11--------------------------------------------------------
A|--------------------------------------------------------------------------------------------------
E|--------------------------------------------------------------------------------------------------

E|----14/16v--------------------------------------------------------------
B|--12-------------------------------------------------9---9-10-9-12/14---
G|-----------------11/13v--------------------9-11-9-11--11----------------
D|---------------9----------------------9h11------------------------------
A|------------------------------7-9/11h-----------------------------------
E|------------------------------------------------------------------------

E|--12h14-12h14-12h14-12h14-12h14--12--14/16--16b--12-14-12-14b---12-14b-12----
B|------------------------------------------------------------------------------
G|------------------------------------------------------------------------------
D|------------------------------------------------------------------------------
A|------------------------------------------------------------------------------
E|------------------------------------------------------------------------------

E|-12---------------------------------------------------------------------------------------------
B|----14p12----------------------------------------------------------10p-9-9---10p-9-10-12--12/14-
G|---------13\11-11h9---9--------------------------------------9-11p------------------------------
D|--------------------11-1-1h9----------------------------11-9------------------------------------
A|-----------------------------11h9--9h11p9--9-7-7----9-11----------------------------------------
E|------------------------------------------------------------------------------------------------

E|---14--16b--16--14--12------------------------
B|12----------------------14\12------------------
G|-----------------------------13-11-9----------
D|--------------------------------------11--9\7-
A|-------------------------------------------------------
E|-------------------------------------------------------




Paste any tab in acousterr's tab maker and we'll play it !!!
Now supports capo and sound effects for vibrato/pull-off/hammer/bends/mutes etc !!! Checkout help section
tabs and chords, guitar tabs, music transcription, music technology, deep learning, music information retrieval, transcribe into tabs & chords, chordify, music renditions, songsterr, reverbnation, tabulature, bollywood chords, ultimate guitar, yousician, guitar lessons, acoustic guitar, electric guitar, guitar tuner, 911 tabs