Guitar Tabs for Sonic Cassino


E|--------------------------------------------------------3-----6--4-----3-----3--3-----
B|--------4-----------4-----7--6-----4--------------------4-----6--4-----3-----3--3-----
G|--------5-----------5--------------------5--------------5-----7--5-----4-----4--4-----
D|--------5-----------5--------------------5--------------5-----------------------------
A|--3-----------------------3--3-----3-----3--------3-----3-----------------------------
E|--------------3-----------------------------------------------6--4-----3-----3--3-----

E|--0-----0-----0--------------------------------0-----1-----0-----4--4-----0--------------------------------0--
B|--------------------------------------------------------------------------------------------------------------
G|--------------------0--------------0-----------------------------4--4--------------4-----------4--------------
D|--------------------2-----------2--------------------------2-----------2-----------2-----------2-----------4--
A|--0-----2-----3--------------------------3--------------------------------------------------------------------
E|--------------------------3--------------------------3-----------0-----------4-----------0-----------4--------

E|-----5--5-----------------------------------------------------------------------------------------
B|-----5--5-----5--------------------------------------4-----3--------------------------------------
G|-----------------5-----------------5-----5-----7--5--5--------5-----------------------------------
D|-----------7-----------7-----------7-----7-----7--7--------6-----------6-----------6--------6-----
A|-----0-----------------------0--------------------------------------------------------------------
E|-----------------0-----------------------0-----------0-----------0-----------0-----------0-----6--

E|-----------0-----1-----0-----4--4-----0--------------------5-----------7-----8-----------------------
B|-----------------------------------------------------------5-----------------------------------10----
G|-----------------------------4--4--------------4-----------------------------------------------------
D|-----------------------------------2-----------2-----------7-----------------------10----------10----
A|-----3-----2-----------------------------------------0-----------------------8-----------------------
E|-----------------3-----------0-----------4-----------------------0-----------------------8-----------

E|--=3----------0--------------------------------------------------------3-----------------
B|--------1-----------1-----------------3-----------4-----------6--4--6--3-----------------
G|--------0-----------0-----5-----------------------5--------------------4-----------------
D|--------------------------------3-----------3-----------6--------------------5--3-----2--
A|--------3-----------3-----------3-----------3--------------------------------------------
E|--------------------------------------------------0-----------0--------3-----------------

E|-----------0-----------------------------0-----1-----0-----4--4-----0-----------------------------
B|--------1--1--------------------------------------------------------------------------------------
G|--0--2-----------0-----------0-----------------------------4--4--------------4-----------4--------
D|-----0-----------2-----------2--------------------2--------------2-----------2-----------2--------
A|-----------3-----------------------3-----------3--------------------------------------------------
E|-----------------------3-----------------------------------0-----------4-----------0-----------4--

E|-----0-----5--5-----------------------------------------------------------------------------------------
B|-----------5--5-----5--------------------------------------4-----3--------------------------------------
G|-----------------------5-----------------5-----5-----7--5--5--------5-----------------------------------
D|-----4-----------7-----------7-----------7-----7-----7--7--------6-----------6-----------6--------6-----
A|-----------0-----------------------0--------------------------------------------------------------------
E|-----------------------0-----------------------0-----------0-----------0-----------0-----------0-----6--

E|-----------0-----1-----0-----4--4-----0--------------------5-----------7-----8-----------------------
B|-----------------------------------------------------------5-----------------------10----------10----
G|-----------------------------4--4--------------4-----------------------------------------------------
D|-----------2-----------------------2-----------2-----------7-----------------------------------10----
A|-----3-----------------------------------------------0-----------------------8-----------------------
E|-----------------3-----------0-----------4-----------------------0-----------------------8-----------

E|--3-----------0-----------------------------5-----3-----------0-----------------------------5-----
B|--------1-----------1-----------------3-----3-----------1-----------1-----------------3-----3-----
G|--------0-----------0-----5-----------------5-----------0-----------0-----5-----------------5-----
D|--------------------------------3-----------3-----------------------------------3-----------3-----
A|--------3-----------3-----------3-----------3-----------3-----------3-----------3-----------3-----
E|--------------------------------------------------------------------------------------------------

E|--3-----------0--------------------------------------x--x-----x-----x--------------------------
B|--------1-----------1-----------------3--------------x--x-----x-----x--------------------------
G|--------0-----------0-----5--------------------5-----x--x-----x-----x-----5---5\4-----2--------
D|--------------------------------3--------------------x--x-----x-----x-----------------------5--
A|--------3-----------3-----------3--------------------x--x-----x-----x-----------------0--------
E|-----------------------------------------------3-----x--x-----x-----x-----3---3\2-----------3--

E|--
B|--
G|--
D|--
A|--
E|--





     
tabs and chords, guitar tabs, music transcription, music technology, deep learning, music information retrieval, transcribe into tabs & chords, chordify, music renditions, songsterr, reverbnation, tabulature, bollywood chords, ultimate guitar, yousician, guitar lessons, acoustic guitar, electric guitar, guitar tuner, 911 tabs