Guitar Tabs for Linkin Park - Numb(finger Style)

(/) Slide Up  (\) Slide Down  (h) Hammer On  (p) Pull Off  (b) Bend (r) Release (v) Vibrato

Tabs for Song : 
Capo on 2nd Fret
*Work in Progress*
Song lyrics here
E|-----------0-----3-----2-----------------
B|--0--3--0--------------------------3-----
G|--------------0-----0-----------0--------
D|-----------------------------2-----------
A|--------------------------3--------------
E|-----------0-----------------------------

E|-----------3-----2-----------------0-----
B|--0--3--0--------------3--------3--------
G|--------------0-----0--------2-----------
D|--------------------------0--------------
A|-----------------------------------------
E|-----------3-----------------------------

E|-----------0-----------------------------------------------
B|--0--3--0-----0--0--0---0h1--0-----0-----------------------
G|--------------0-----------------------2--0--------0--------
D|--------------2--------------------------------0-----0-----
A|--------------2-----------------3-----------3--------------
E|-----------0--0--------------------------------------------

E|-----------------------------------------------
B|--0--0--------------0--0-----------------------
G|--------2--0-----2--------2--0-----2-----0-----
D|--------------------0-----------0-----0--------
A|-----------------------------------------------
E|--3-----------3--------------------------------

E|--------------------------------------------------
B|---0--0--0---0h1--0-----0-------------------------
G|---0-----------------------2--0--------0----------
D|---2--------------------------------0-----0-------
A|---2-----------------3-----------3----------------
E|0--0----------------------------------------------

E|--------------------------------------------------
B|--0--0--------------0--------------------0--------
G|--------2--0-----2-----2-----0-----2--------------
D|--------------------0-----0-----0-----0-----------
A|--------------------------------------------------
E|--3-----------3-----------------------------------



Song lyrics here
E|--
B|--
G|--
D|--
A|--
E|--

Add more lines by placing cursor below and adding notes
tabs and chords, guitar tabs, music contests, music covers, songsterr, reverbnation, renditions, tabulature, bollywood chords, ultimate guitar, yousician, guitar lessons, torrins, fender, gibson, acoustic guitar, electric guitar, youtube covers, gootar, guitar tuner, A-Z tabs, 911 tabs