Guitar Tabs for Song1

(/) Slide Up  (\) Slide Down  (h) Hammer On  (p) Pull Off  (b) Bend (r) Release (v) Vibrato (x) Muted

Tabs & Chords
BPM : 170.0
Check Track 2 for Chord Positions 

                A                    A#                   G                                   
E|--------0-----0-----0--0-----------------------6--------------------------------------------
B|-----------------------------6-----6-----6--------------------------------------------------
G|-----------------------------------------------------7--7-----7-----7-----7--7--7--7--7--7--
D|--------------------------------------------------------------------------------------------
A|--0-----------------------------------------------------------------------------------------
E|--------------------------------------------------------------------------------------------

          F        G              A                       A#                                  
E|--------------------------------0-----0-----5-----0-----------------------------------------
B|--6-----6-----------------------------------------------6-----6--6-----6-----6--6--6-----8--
G|--------------7--7--7--7--7-----------------------------------------------------------------
D|--------------------------------------------------------------------------------------------
A|--------------------------------------------------------------------------------------------
E|--------------------------------------------------------------------------------------------

       G                                   F           G     A                       C           
E|-----------------------------------------------0-----------0-----0--0--0-----0-----------------
B|-----------------------------------------6-----------------------------------------6--6--------
G|-----7-----7--7-----7-----7--7-----7-----------------7-----------------------------------------
D|--------------------------------------------------------------------------------------------7--
A|-----------------------------------------------------------------------------------------------
E|-----------------------------------------------------------------------------------------------

    A        
E|--0-----0--
B|-----------
G|-----------
D|-----------
A|-----------
E|-----------

Guitar Tabs for Song1






                A                    A#                   G                                   
E|--------------0--------------------1--------------------3-----------------------------------
B|--------------2--------------------3--------------------3-----------------------------------
G|--------------2--------------------3--------------------4-----------------------------------
D|--------------2--------------------3--------------------5-----------------------------------
A|--------------0--------------------1--------------------5-----------------------------------
E|--------------------------------------------------------3-----------------------------------

          F        G              A                       A#                                  
E|--------1--------3--------------0-----------------------1-----------------------------------
B|--------1--------3--------------2-----------------------3-----------------------------------
G|--------2--------4--------------2-----------------------3-----------------------------------
D|--------3--------5--------------2-----------------------3-----------------------------------
A|--------3--------5--------------0-----------------------1-----------------------------------
E|--------1--------3--------------------------------------------------------------------------

       G                                   F           G     A                       C           
E|-----3-----------------------------------1-----------3-----0-----------------------0-----------
B|-----3-----------------------------------1-----------3-----2-----------------------1-----------
G|-----4-----------------------------------2-----------4-----2-----------------------0-----------
D|-----5-----------------------------------3-----------5-----2-----------------------2-----------
A|-----5-----------------------------------3-----------5-----0-----------------------3-----------
E|-----3-----------------------------------1-----------3-----------------------------------------

    A        
E|--0--------
B|--2--------
G|--2--------
D|--2--------
A|--0--------
E|-----------

tabs and chords, guitar tabs, music transcription, music technology, deep learning, music information retrieval, transcribe into tabs & chords, chordify, music renditions, songsterr, reverbnation, tabulature, bollywood chords, ultimate guitar, yousician, guitar lessons, acoustic guitar, electric guitar, guitar tuner, 911 tabs