Guitar Tabs for Song1

(/) Slide Up  (\) Slide Down  (h) Hammer On  (p) Pull Off  (b) Bend (r) Release (v) Vibrato (x) Muted

Tabs for Song : 

Song lyrics here
E|--------------------------------------------------------------------------------------
B|--10----10/12-10-8--7------7h-8h10-8--7---5/7--7v-------8--7---5h7--5--3--2---------3/
G|--------------------------------------------------------------------------------------
D|--0-----------------0---------------------0/------------0-----------------------------
A|-----------------------------------------------------------------------2--0-----------
E|--------------------------------------------------------------------------------------

Song lyrics here
E|-----------------------------------------------------------------------------------------------
B|--10----10/12-10-8--7------7h-8h10-8--7---5/7--7v-------8--7---5/7--5--3--2------2h-3/5--3--2--
G|-----------------------------------------------------------------------------------------------
D|--0-----------------0---------------------0/------------0--------------------------------------
A|-----------------------------------------------------------------------2--0--------------------
E|-----------------------------------------------------------------------------------------------

E|--------------------------------------------
B|--7v-------3--5v-----3/7v----3--2-----3--5--
G|--------------------------------------------
D|--------------------------------------------
A|--5v-------2--3v-----2/5v----2--0-----------
E|--------------------------------------------

E|-----------------------------------------
B|--7-----8--10v----8/12v------10-8--7v----
G|-----------------------------------------
D|-----------------------------------------
A|--5-----7--9v-----7/10v------9--7--5v----
E|-----------------------------------------

E|-----------------------------------------------------
B|--3--5--------3--7v-------3--2------2h-3/5--3--2--3v-
G|-----------------------------------------------------
D|--------------------------------------------------0v-
A|--2--3--------2--5v-------2--0-----------------------
E|-----------------------------------------------------

Paste any tab in acousterr's tab maker and we'll play it !!!
Now supports capo and sound effects for vibrato/pull-off/hammer/bends/mutes etc !!! Checkout help section
tabs and chords, guitar tabs, music transcription, music technology, deep learning, music information retrieval, transcribe into tabs & chords, chordify, music renditions, songsterr, reverbnation, tabulature, bollywood chords, ultimate guitar, yousician, guitar lessons, acoustic guitar, electric guitar, guitar tuner, 911 tabs