Guitar Tabs for Song1

(/) Slide Up  (\) Slide Down  (h) Hammer On  (p) Pull Off  (b) Bend (r) Release (v) Vibrato (x) Muted

Tabs for Song : 
BPM : 190

Song lyrics here 

E|--------------------------------------------------------------------------------------------------
B|--------------3-----------------------3-----------------------2-----------------------2-----------
G|--------4--------4-----4--------4--------4-----4--------2--------2-----2--------2--------2-----2--
D|-----4-----4--------4--------4-----4--------4--------2-----2--------2--------4-----4--------4-----
A|--2-----------------------------------------------0-----------------------------------------------
E|--------------------------3-----------------------------------------------2-----------------------

E|--------------------------------------------------------------------------------------------------
B|--------------3-----------------------3-----------------------2-----------------------2-----------
G|--------4--------4-----4--------4--------4-----4--------2--------2-----2--------2--------2-----2--
D|-----4-----4--------4--------4-----4--------4--------2-----2--------2--------4-----4--------4-----
A|--2-----------------------------------------------0-----------------------------------------------
E|--------------------------3-----------------------------------------------2-----------------------

E|--------------------------------------------------------------------------------------------------
B|--------------------------------------0-----------------------0-----------------------0-----------
G|--------------0-----------------0--------0-----0--------0--------0-----0--------0--------0-----0--
D|--------2--------2-----2-----0-----0--------0--------2-----2--------2--------4-----4--------4-----
A|-----2-----2--------2-----2-----------------------3-----------------------5-----------------------
E|--0-----------------------------------------------------------------------------------------------

E|--------------------------------------------------------------------------------------------------
B|--------------0-----------------------0-----------------------0-----------------------0-----------
G|--------0--------0-----0--------0--------0-----0--------0--------0-----0--------0--------0-----0--
D|-----2-----2--------2--------0-----0--------0--------2-----2--------2--------4-----4--------4-----
A|--0-----------------------2-----------------------3-----------------------5-----------------------
E|--------------------------------------------------------------------------------------------------

E|--------------------------------------------x-----x-----------------------
B|--------------------------------------------x-----x-----------------------
G|--------0-----------0-----------------------x-----x-----------------------
D|-----------0-----------0--------------------x-----x-----------------------
A|-----0-----------0--------------------------x-----x-----------------------
E|--3-----------2------------0/---------------x-----x-----------------------

E|--------------------------------------------------------------------------------------3-----------
B|-----------------------------------------------------------0--3-----------------3--------3-----3--
G|--------------1-----------------------0-----------------2-----------2--------2-----2--------2-----
D|--------2-----------2-----------0-----------0--------0--------------------------------------------
A|-----2-----2-----------------0-----0--------------------------------------2-----------------------
E|--0-----------------------3-----------------------2-----------------------------------------------

E|--------------------------------------------------------------------------------------------------------
B|--------------------------------------------------------------------------------------------------3-----
G|--------------1-----------------------4-----------------------3-----------------------4-----------------
D|--------2-----------2-----------5-----------5-----------4-----------4-----------4-----------4-----------
A|-----2-----2-----------------5-----5-----------------4-----4--------------2-----------------------------
E|--0-----------------------3-----------------------2-----------------------------------------------------

E|--------------------------------------------------------------------------------------------------
B|--------------3-----------------------3-----------------------2-----------------------2-----------
G|--------4--------4-----4--------4--------4-----4--------2--------2-----2--------2--------2-----2--
D|-----4-----4--------4--------4-----4--------4--------2-----2--------2--------4-----4--------4-----
A|--2-----------------------------------------------0-----------------------------------------------
E|--------------------------3-----------------------------------------------2-----------------------



Song lyrics he

Use manual mode to free up cursor. Paste any tab in acousterr tab maker and we'll play it !!!
tabs and chords, guitar tabs, music transcription, music technology, deep learning, music information retrieval, transcribe into tabs & chords, chordify, music renditions, songsterr, reverbnation, tabulature, bollywood chords, ultimate guitar, yousician, guitar lessons, acoustic guitar, electric guitar, guitar tuner, 911 tabs