Guitar Tabs for Nothing

E|-- 
B|-- 
G|-- 
D|-- 
A|-- 
E|--  

E|-------------------------------------------------------------------------------------------------------------------------------------------------------- 
B|-------------------------------------------------------------------------------------------------------------------------------------------------------- 
G|-------------------------------------------------------------------------------------------------------------------------------------------------------- 
D|--------------------------------------------------------------------------------16-17-16-14-------16-17-16-14-------16-17-16-14-------16-17-16-14------- 
A|--------14-15-14-12-------14-15-14-12-------14-15-14-12-------14-15-14-12-14----------------14----------------14----------------14---------------------- 
E|--12----------------12----------------12----------------12----------------------------------------------------------------------------------------12----  

E|----- 
B|----- 
G|----- 
D|----- 
A|----- 
E|----- 

Bass Tabs for Nothing

G|----------------------------------------------------------------- 
D|----------------------------------------------------------------- 
A|--------------------------2--2--2--2----------------------------- 
E|--0--0--0--0--0--0--0--0--------------3--3--3--3--0--0--0--0--0--    



G|-------------------------------------------------------------------------------------------------------------------------------------------------------- 
D|-------------------------------------------------------------------------------------------------------------------------------------------------------- 
A|--------------------------------------------------------------------------2--2--2--2--2--2--2--2--2--2--2--2--2--2--2--2--2--2--2--2--2--2--2--2-------- 
E|--0--0--0--0--0--0--0--0--0--0--0--0--0--0--0--0--0--0--0--0--0--0--0--0--------------------------------------------------------------------------0-----    



G|----------------------------------------------------------------------------------------------------------------------------------------------------- 
D|----------------------------------------------------------------------------------------------------------------------------------------------------- 
A|--------------------------------------3--3--3--3--3--3--2--2--2--2--2-----------------------------------------3--3--3--3---5\7--7--7--7--7--7--7----- 
E|--0-----0--0--0--0--0-----0--0--0--0--------------------------------------0-----0--0--0--0--0-----0--0--0--0--------------------------------------0-- 

Guitar Tabs for Nothing

E|-- 
B|-- 
G|-- 
D|-- 
A|-- 
E|--  

E|-------------------------------------------------------------------------------------------------------------------------------------------------------- 
B|-------------------------------------------------------------------------------------------------------------------------------------------------------- 
G|-------------------------------------------------------------------------------------------------------------------------------------------------------- 
D|--------------------------------------------------------------------------------16-17-16-14-------16-17-16-14-------16-17-16-14-------16-17-16-14------- 
A|--------14-15-14-12-------14-15-14-12-------14-15-14-12-------14-15-14-12-14----------------14----------------14----------------14---------------------- 
E|--12----------------12----------------12----------------12----------------------------------------------------------------------------------------12----  

E|----- 
B|----- 
G|----- 
D|----- 
A|----- 
E|----- 
tabs and chords, guitar tabs, music transcription, music technology, deep learning, music information retrieval, transcribe into tabs & chords, chordify, music renditions, songsterr, reverbnation, tabulature, bollywood chords, ultimate guitar, yousician, guitar lessons, acoustic guitar, electric guitar, guitar tuner, 911 tabs