Guitar Tabs for Song

(/) Slide Up  (\) Slide Down  (h) Hammer On  (p) Pull Off  (b) Bend (r) Release (v) Vibrato (x) Muted
E|--0--------0--0-----0-----2-----2-----3-----2-----0--------0--0--
B|--0--------0--0-----0-----3-----3-----3-----3-----0--------0--0--
G|--0--------0--0-----0-----4-----4-----4-----4-----0--------0--0--
D|--2--------2--2-----2-----4-----4-----5-----4-----2--------2--2--
A|--2--------2--2-----2-----2-----2-----5-----2-----2--------2--2--
E|--0--------0--0-----0-----------------3-----------0--------0--0--

E|-----------------------------------------------------------------------------------------------------------------------------------------------------
B|-----------------------------------------------------------------------------------------------------------------------------------------------------
G|--------------------------------------------------------------------------4-----------------4-----------------4-----------------4--------------------
D|--2-----------------2-----------------2-----------------2-----------------4-----------------4-----------------4-----------------4-----------------2--
A|--2-----------------2-----------------2-----------------2-----------------2--------2--2--2--2--------2--2--2--2--------2--2--2--2--------2--2--2--2--
E|--0--------0--0--0--0--------0--0--0--0--------0--0--0--0--------0--0--0--------------------------------------------------------------------------0--

E|-----------------------------------------------------------------------------------------------------------------------------------------------------
B|-----------------------------------------------------------------------------------------------------------------------------------------------------
G|--2-----------------2-----------------------------------------------------2-----------------2-----------------5-----5------7\9--9-----9-----9-----2--
D|--2-----------------2-----------------2-----2-----2-----1-----1-----1-----2-----------------2-----------------5-----5------7\9--9-----9-----9-----2--
A|--0-----0--0--0--0--0-----0--0--0--0--3-----3-----3-----2-----2-----2-----0-----0--0--0--0--0-----0--0--0--0--3-----3------5\7--7-----7-----7-----0--
E|-----------------------------------------------------------------------------------------------------------------------------------------------------

Bass Tabs for Song

G|-----------------------------------------------------------------
D|-----------------------------------------------------------------
A|--------------------------2--2--2--2-----------------------------
E|--0--0--0--0--0--0--0--0--------------3--3--3--3--0--0--0--0--0--



G|--------------------------------------------------------------------------------------------------------------------------------------------------------
D|--------------------------------------------------------------------------------------------------------------------------------------------------------
A|--------------------------------------------------------------------------2--2--2--2--2--2--2--2--2--2--2--2--2--2--2--2--2--2--2--2--2--2--2--2--------
E|--0--0--0--0--0--0--0--0--0--0--0--0--0--0--0--0--0--0--0--0--0--0--0--0--------------------------------------------------------------------------0-----



G|-----------------------------------------------------------------------------------------------------------------------------------------------------
D|-----------------------------------------------------------------------------------------------------------------------------------------------------
A|--------------------------------------3--3--3--3--3--3--2--2--2--2--2-----------------------------------------3--3--3--3---5\7--7--7--7--7--7--7-----
E|--0-----0--0--0--0--0-----0--0--0--0--------------------------------------0-----0--0--0--0--0-----0--0--0--0--------------------------------------0--

Guitar Tabs for Song

E|--
B|--
G|--
D|--
A|--
E|--

E|--------------------------------------------------------------------------------------------------------------------------------------------------------
B|--------------------------------------------------------------------------------------------------------------------------------------------------------
G|--------------------------------------------------------------------------------------------------------------------------------------------------------
D|--------------------------------------------------------------------------------16-17-16-14-------16-17-16-14-------16-17-16-14-------16-17-16-14-------
A|--------14-15-14-12-------14-15-14-12-------14-15-14-12-------14-15-14-12-14----------------14----------------14----------------14----------------------
E|--12----------------12----------------12----------------12----------------------------------------------------------------------------------------12----

E|-----
B|-----
G|-----
D|-----
A|-----
E|-----
tabs and chords, guitar tabs, music transcription, music technology, deep learning, music information retrieval, transcribe into tabs & chords, chordify, music renditions, songsterr, reverbnation, tabulature, bollywood chords, ultimate guitar, yousician, guitar lessons, acoustic guitar, electric guitar, guitar tuner, 911 tabs